  0
SECTION
  2
HEADER
  9
$ACADVER
  1
AC1015
  9
$ACADMAINTVER
 70
     6
  9
$DWGCODEPAGE
  3
ANSI_1252
  9
$INSBASE
 10
0.0
 20
0.0
 30
0.0
  9
$EXTMIN
 10
0.0
 20
0.0
 30
0.0
  9
$EXTMAX
 10
297.0
 20
210.0
 30
0.0
  9
$LIMMIN
 10
0.0
 20
0.0
  9
$LIMMAX
 10
297.0
 20
210.0
  9
$ORTHOMODE
 70
     0
  9
$REGENMODE
 70
     1
  9
$FILLMODE
 70
     1
  9
$QTEXTMODE
 70
     0
  9
$MIRRTEXT
 70
     1
  9
$LTSCALE
 40
1.0
  9
$ATTMODE
 70
     1
  9
$TEXTSIZE
 40
3.5
  9
$TRACEWID
 40
1.0
  9
$TEXTSTYLE
  7
Standard
  9
$CLAYER
  8
0
  9
$CELTYPE
  6
ByLayer
  9
$CECOLOR
 62
   256
  9
$CELTSCALE
 40
1.0
  9
$DISPSILH
 70
     0
  9
$DIMSCALE
 40
1.0
  9
$DIMASZ
 40
3.302
  9
$DIMEXO
 40
1.0
  9
$DIMDLI
 40
3.75
  9
$DIMRND
 40
0.0
  9
$DIMDLE
 40
0.0
  9
$DIMEXE
 40
1.0
  9
$DIMTP
 40
0.0
  9
$DIMTM
 40
0.0
  9
$DIMTXT
 40
3.5
  9
$DIMCEN
 40
2.5
  9
$DIMTSZ
 40
0.0
  9
$DIMTOL
 70
     0
  9
$DIMLIM
 70
     0
  9
$DIMTIH
 70
     1
  9
$DIMTOH
 70
     1
  9
$DIMSE1
 70
     0
  9
$DIMSE2
 70
     0
  9
$DIMTAD
 70
     1
  9
$DIMZIN
 70
     0
  9
$DIMBLK
  1

  9
$DIMASO
 70
     1
  9
$DIMSHO
 70
     1
  9
$DIMPOST
  1

  9
$DIMAPOST
  1

  9
$DIMALT
 70
     0
  9
$DIMALTD
 70
     3
  9
$DIMALTF
 40
0.0393700787
  9
$DIMLFAC
 40
1.0
  9
$DIMTOFL
 70
     1
  9
$DIMTVP
 40
0.0
  9
$DIMTIX
 70
     0
  9
$DIMSOXD
 70
     0
  9
$DIMSAH
 70
     0
  9
$DIMBLK1
  1

  9
$DIMBLK2
  1

  9
$DIMSTYLE
  2
ISO-25
  9
$DIMCLRD
 70
     0
  9
$DIMCLRE
 70
     0
  9
$DIMCLRT
 70
     0
  9
$DIMTFAC
 40
1.0
  9
$DIMGAP
 40
1.524
  9
$DIMJUST
 70
     0
  9
$DIMSD1
 70
     0
  9
$DIMSD2
 70
     0
  9
$DIMTOLJ
 70
     0
  9
$DIMTZIN
 70
     0
  9
$DIMALTZ
 70
     0
  9
$DIMALTTZ
 70
     0
  9
$DIMUPT
 70
     0
  9
$DIMDEC
 70
     2
  9
$DIMTDEC
 70
     2
  9
$DIMALTU
 70
     2
  9
$DIMALTTD
 70
     3
  9
$DIMTXSTY
  7
Standard
  9
$DIMAUNIT
 70
     0
  9
$DIMADEC
 70
     2
  9
$DIMALTRND
 40
0.0
  9
$DIMAZIN
 70
     0
  9
$DIMDSEP
 70
    44
  9
$DIMATFIT
 70
     3
  9
$DIMFRAC
 70
     0
  9
$DIMLDRBLK
  1

  9
$DIMLUNIT
 70
     2
  9
$DIMLWD
 70
    -2
  9
$DIMLWE
 70
    -2
  9
$DIMTMOVE
 70
     0
  9
$LUNITS
 70
     2
  9
$LUPREC
 70
     2
  9
$SKETCHINC
 40
1.0
  9
$FILLETRAD
 40
10.0
  9
$AUNITS
 70
     0
  9
$AUPREC
 70
     2
  9
$MENU
  1
.
  9
$ELEVATION
 40
0.0
  9
$PELEVATION
 40
0.0
  9
$THICKNESS
 40
0.0
  9
$LIMCHECK
 70
     0
  9
$CHAMFERA
 40
10.0
  9
$CHAMFERB
 40
10.0
  9
$CHAMFERC
 40
20.0
  9
$CHAMFERD
 40
0.0
  9
$SKPOLY
 70
     0
  9
$TDCREATE
 40
2456836.983706736
  9
$TDUCREATE
 40
2456836.900373403
  9
$TDUPDATE
 40
2456836.983707303
  9
$TDUUPDATE
 40
2456836.90037397
  9
$TDINDWG
 40
0.0000000116
  9
$TDUSRTIMER
 40
0.0000000116
  9
$USRTIMER
 70
     1
  9
$ANGBASE
 50
0.0
  9
$ANGDIR
 70
     0
  9
$PDMODE
 70
     0
  9
$PDSIZE
 40
-1.0
  9
$PLINEWID
 40
0.0
  9
$SPLFRAME
 70
     0
  9
$SPLINETYPE
 70
     6
  9
$SPLINESEGS
 70
     8
  9
$HANDSEED
  5
1B2
  9
$SURFTAB1
 70
     6
  9
$SURFTAB2
 70
     6
  9
$SURFTYPE
 70
     6
  9
$SURFU
 70
     6
  9
$SURFV
 70
     6
  9
$UCSBASE
  2

  9
$UCSNAME
  2

  9
$UCSORG
 10
0.0
 20
0.0
 30
0.0
  9
$UCSXDIR
 10
1.0
 20
0.0
 30
0.0
  9
$UCSYDIR
 10
0.0
 20
1.0
 30
0.0
  9
$UCSORTHOREF
  2

  9
$UCSORTHOVIEW
 70
     0
  9
$UCSORGTOP
 10
0.0
 20
0.0
 30
0.0
  9
$UCSORGBOTTOM
 10
0.0
 20
0.0
 30
0.0
  9
$UCSORGLEFT
 10
0.0
 20
0.0
 30
0.0
  9
$UCSORGRIGHT
 10
0.0
 20
0.0
 30
0.0
  9
$UCSORGFRONT
 10
0.0
 20
0.0
 30
0.0
  9
$UCSORGBACK
 10
0.0
 20
0.0
 30
0.0
  9
$PUCSBASE
  2

  9
$PUCSNAME
  2

  9
$PUCSORG
 10
0.0
 20
0.0
 30
0.0
  9
$PUCSXDIR
 10
1.0
 20
0.0
 30
0.0
  9
$PUCSYDIR
 10
0.0
 20
1.0
 30
0.0
  9
$PUCSORTHOREF
  2

  9
$PUCSORTHOVIEW
 70
     0
  9
$PUCSORGTOP
 10
0.0
 20
0.0
 30
0.0
  9
$PUCSORGBOTTOM
 10
0.0
 20
0.0
 30
0.0
  9
$PUCSORGLEFT
 10
0.0
 20
0.0
 30
0.0
  9
$PUCSORGRIGHT
 10
0.0
 20
0.0
 30
0.0
  9
$PUCSORGFRONT
 10
0.0
 20
0.0
 30
0.0
  9
$PUCSORGBACK
 10
0.0
 20
0.0
 30
0.0
  9
$USERI1
 70
     0
  9
$USERI2
 70
     0
  9
$USERI3
 70
     0
  9
$USERI4
 70
     0
  9
$USERI5
 70
     0
  9
$USERR1
 40
0.0
  9
$USERR2
 40
0.0
  9
$USERR3
 40
0.0
  9
$USERR4
 40
0.0
  9
$USERR5
 40
0.0
  9
$WORLDVIEW
 70
     1
  9
$SHADEDGE
 70
     3
  9
$SHADEDIF
 70
    70
  9
$TILEMODE
 70
     1
  9
$MAXACTVP
 70
    64
  9
$PINSBASE
 10
0.0
 20
0.0
 30
0.0
  9
$PLIMCHECK
 70
     0
  9
$PEXTMIN
 10
1.0000000000E+20
 20
1.0000000000E+20
 30
1.0000000000E+20
  9
$PEXTMAX
 10
-1.0000000000E+20
 20
-1.0000000000E+20
 30
-1.0000000000E+20
  9
$PLIMMIN
 10
0.0
 20
0.0
  9
$PLIMMAX
 10
420.0
 20
297.0
  9
$UNITMODE
 70
     0
  9
$VISRETAIN
 70
     1
  9
$PLINEGEN
 70
     0
  9
$PSLTSCALE
 70
     1
  9
$TREEDEPTH
 70
  3020
  9
$CMLSTYLE
  2
Standard
  9
$CMLJUST
 70
     0
  9
$CMLSCALE
 40
20.0
  9
$PROXYGRAPHICS
 70
     1
  9
$MEASUREMENT
 70
     1
  9
$CELWEIGHT
370
    -1
  9
$ENDCAPS
280
     0
  9
$JOINSTYLE
280
     0
  9
$LWDISPLAY
290
     1
  9
$INSUNITS
 70
     4
  9
$HYPERLINKBASE
  1

  9
$STYLESHEET
  1

  9
$XEDIT
290
     1
  9
$CEPSNTYPE
380
     0
  9
$PSTYLEMODE
290
     1
  9
$FINGERPRINTGUID
  2
{CC6C9E97-683A-46BD-9EEB-9D582C79355D}
  9
$VERSIONGUID
  2
{FAEB1C32-E019-11D5-929B-00C0DF256EC4}
  9
$EXTNAMES
290
     1
  9
$PSVPSCALE
 40
0.0
  9
$OLESTARTUP
290
     0
  0
ENDSEC
  0
SECTION
  2
CLASSES
  0
CLASS
  1
ACDBDICTIONARYWDFLT
  2
AcDbDictionaryWithDefault
  3
ObjectDBX Classes
 90
        0
280
     0
281
     0
  0
CLASS
  1
VISUALSTYLE
  2
AcDbVisualStyle
  3
ObjectDBX Classes
 90
     4095
280
     0
281
     0
  0
CLASS
  1
MATERIAL
  2
AcDbMaterial
  3
ObjectDBX Classes
 90
     1153
280
     0
281
     0
  0
CLASS
  1
ACDBPLACEHOLDER
  2
AcDbPlaceHolder
  3
ObjectDBX Classes
 90
        0
280
     0
281
     0
  0
CLASS
  1
LAYOUT
  2
AcDbLayout
  3
ObjectDBX Classes
 90
        0
280
     0
281
     0
  0
ENDSEC
  0
SECTION
  2
TABLES
  0
TABLE
  2
VPORT
  5
8
330
0
100
AcDbSymbolTable
 70
     1
  0
VPORT
  5
29
330
8
100
AcDbSymbolTableRecord
100
AcDbViewportTableRecord
  2
*Active
 70
     0
 10
0.0
 20
0.0
 11
1.0
 21
1.0
 12
148.5
 22
105.0
 13
0.0
 23
0.0
 14
10.0
 24
10.0
 15
10.0
 25
10.0
 16
0.0
 26
0.0
 36
1.0
 17
0.0
 27
0.0
 37
0.0
 40
210.0
 41
1.4142857143
 42
50.0
 43
0.0
 44
0.0
 50
0.0
 51
0.0
 71
     0
 72
  2000
 73
     1
 74
     3
 75
     0
 76
     0
 77
     0
 78
     0
281
     0
 65
     1
110
0.0
120
0.0
130
0.0
111
1.0
121
0.0
131
0.0
112
0.0
122
1.0
132
0.0
 79
     0
146
0.0
  0
ENDTAB
  0
TABLE
  2
LTYPE
  5
5
330
0
100
AcDbSymbolTable
 70
     6
  0
LTYPE
  5
14
330
5
100
AcDbSymbolTableRecord
100
AcDbLinetypeTableRecord
  2
ByBlock
 70
     0
  3

 72
    65
 73
     0
 40
0.0
  0
LTYPE
  5
15
330
5
100
AcDbSymbolTableRecord
100
AcDbLinetypeTableRecord
  2
ByLayer
 70
     0
  3

 72
    65
 73
     0
 40
0.0
  0
LTYPE
  5
16
330
5
100
AcDbSymbolTableRecord
100
AcDbLinetypeTableRecord
  2
Continuous
 70
     0
  3
Solid line
 72
    65
 73
     0
 40
0.0
  0
LTYPE
  5
3F
330
5
100
AcDbSymbolTableRecord
100
AcDbLinetypeTableRecord
  2
HIDDEN
 70
     0
  3
Hidden __ __ __ __ __ __ __ __ __ __ __ __ __ __
 72
    65
 73
     2
 40
1.905
 49
1.27
 74
     0
 49
-0.635
 74
     0
  0
LTYPE
  5
40
330
5
100
AcDbSymbolTableRecord
100
AcDbLinetypeTableRecord
  2
PHANTOM
 70
     0
  3
Phantom ______  __  __  ______  __  __  ______
 72
    65
 73
     6
 40
12.7
 49
6.35
 74
     0
 49
-1.27
 74
     0
 49
1.27
 74
     0
 49
-1.27
 74
     0
 49
1.27
 74
     0
 49
-1.27
 74
     0
  0
LTYPE
  5
41
330
5
100
AcDbSymbolTableRecord
100
AcDbLinetypeTableRecord
  2
CENTER
 70
     0
  3
Center ____ _ ____ _ ____ _ ____ _ ____ _ ____
 72
    65
 73
     4
 40
10.16
 49
6.35
 74
     0
 49
-1.27
 74
     0
 49
1.27
 74
     0
 49
-1.27
 74
     0
  0
LTYPE
  5
42
330
5
100
AcDbSymbolTableRecord
100
AcDbLinetypeTableRecord
  2
CENTERX2
 70
     0
  3
Center (2x) ________  __  ________  __  _____
 72
    65
 73
     4
 40
20.32
 49
12.7
 74
     0
 49
-2.54
 74
     0
 49
2.54
 74
     0
 49
-2.54
 74
     0
  0
LTYPE
  5
43
330
5
100
AcDbSymbolTableRecord
100
AcDbLinetypeTableRecord
  2
DOT2
 70
     0
  3
Dot (.5x) ........................................
 72
    65
 73
     2
 40
0.635
 49
0.0
 74
     0
 49
-0.635
 74
     0
  0
ENDTAB
  0
TABLE
  2
LAYER
  5
2
330
0
100
AcDbSymbolTable
 70
     1
  0
LAYER
  5
10
330
2
100
AcDbSymbolTableRecord
100
AcDbLayerTableRecord
  2
0
 70
     0
 62
     7
  6
Continuous
370
    -3
390
F
  0
ENDTAB
  0
TABLE
  2
STYLE
  5
3
330
0
100
AcDbSymbolTable
 70
     1
  0
STYLE
  5
11
330
3
100
AcDbSymbolTableRecord
100
AcDbTextStyleTableRecord
  2
Standard
 70
     0
 40
0.0
 41
1.0
 50
0.0
 71
     0
 42
3.5
  3
txt
  4

  0
ENDTAB
  0
TABLE
  2
VIEW
  5
6
330
0
100
AcDbSymbolTable
 70
     0
  0
ENDTAB
  0
TABLE
  2
UCS
  5
7
330
0
100
AcDbSymbolTable
 70
     0
  0
ENDTAB
  0
TABLE
  2
APPID
  5
9
330
0
100
AcDbSymbolTable
 70
     1
  0
APPID
  5
12
330
9
100
AcDbSymbolTableRecord
100
AcDbRegAppTableRecord
  2
ACAD
 70
     0
  0
ENDTAB
  0
TABLE
  2
DIMSTYLE
  5
A
330
0
100
AcDbSymbolTable
 70
     1
100
AcDbDimStyleTable
  0
DIMSTYLE
105
27
330
A
100
AcDbSymbolTableRecord
100
AcDbDimStyleTableRecord
  2
ISO-25
 70
     0
 41
2.5
 42
0.625
 43
3.75
 44
1.25
 73
     0
 74
     0
 77
     1
 78
     8
140
2.5
141
2.5
143
0.0393700787
147
0.625
171
     3
172
     1
178
     0
271
     2
272
     2
274
     3
278
    44
283
     0
284
     8
340
11
  0
ENDTAB
  0
TABLE
  2
BLOCK_RECORD
  5
1
330
0
100
AcDbSymbolTable
 70
     1
  0
BLOCK_RECORD
  5
1F
330
1
100
AcDbSymbolTableRecord
100
AcDbBlockTableRecord
  2
*Model_Space
340
22
  0
BLOCK_RECORD
  5
1B
330
1
100
AcDbSymbolTableRecord
100
AcDbBlockTableRecord
  2
*Paper_Space
340
1E
  0
BLOCK_RECORD
  5
23
330
1
100
AcDbSymbolTableRecord
100
AcDbBlockTableRecord
  2
*Paper_Space0
340
26
  0
ENDTAB
  0
ENDSEC
  0
SECTION
  2
BLOCKS
  0
BLOCK
  5
20
330
1F
100
AcDbEntity
  8
0
100
AcDbBlockBegin
  2
*Model_Space
 70
     0
 10
0.0
 20
0.0
 30
0.0
  3
*Model_Space
  1

  0
ENDBLK
  5
21
330
1F
100
AcDbEntity
  8
0
100
AcDbBlockEnd
  0
BLOCK
  5
1C
330
1B
100
AcDbEntity
 67
     1
  8
0
100
AcDbBlockBegin
  2
*Paper_Space
 70
     0
 10
0.0
 20
0.0
 30
0.0
  3
*Paper_Space
  1

  0
ENDBLK
  5
1D
330
1B
100
AcDbEntity
 67
     1
  8
0
100
AcDbBlockEnd
  0
BLOCK
  5
24
330
23
100
AcDbEntity
  8
0
100
AcDbBlockBegin
  2
*Paper_Space0
 70
     0
 10
0.0
 20
0.0
 30
0.0
  3
*Paper_Space0
  1

  0
ENDBLK
  5
25
330
23
100
AcDbEntity
  8
0
100
AcDbBlockEnd
  0
ENDSEC
  0
SECTION
  2
ENTITIES
  0
CIRCLE
  5
44
330
1F
100
AcDbEntity
  8
0
  6
Continuous
 62
     7
370
    15
100
AcDbCircle
 10
169.8043902439
 20
119.3670731707
 30
0.0
 40
3.5
  0
CIRCLE
  5
45
330
1F
100
AcDbEntity
  8
0
  6
Continuous
 62
     7
370
    15
100
AcDbCircle
 10
94.8043902439
 20
119.3670731707
 30
0.0
 40
3.5
  0
LINE
  5
46
330
1F
100
AcDbEntity
  8
0
  6
Continuous
 62
     7
370
    15
100
AcDbLine
 10
88.0912677419
 20
159.0436917468
 30
0.0
 11
88.5399845463
 21
159.0436917468
 31
0.0
  0
LINE
  5
47
330
1F
100
AcDbEntity
  8
0
  6
Continuous
 62
     7
370
    15
100
AcDbLine
 10
88.0912677419
 20
158.72959017
 30
0.0
 11
88.0912677419
 21
159.0436917468
 31
0.0
  0
LINE
  5
48
330
1F
100
AcDbEntity
  8
0
  6
Continuous
 62
     7
370
    15
100
AcDbLine
 10
88.5399845463
 20
158.72959017
 30
0.0
 11
88.0912677419
 21
158.72959017
 31
0.0
  0
LINE
  5
49
330
1F
100
AcDbEntity
  8
0
  6
Continuous
 62
     7
370
    15
100
AcDbLine
 10
88.5399845463
 20
156.4859968348
 30
0.0
 11
88.5399845463
 21
158.72959017
 31
0.0
  0
LINE
  5
4A
330
1F
100
AcDbEntity
  8
0
  6
Continuous
 62
     7
370
    15
100
AcDbLine
 10
88.8540861231
 20
156.4859968348
 30
0.0
 11
88.5399845463
 21
156.4859968348
 31
0.0
  0
LINE
  5
4B
330
1F
100
AcDbEntity
  8
0
  6
Continuous
 62
     7
370
    15
100
AcDbLine
 10
88.8540861231
 20
158.72959017
 30
0.0
 11
88.8540861231
 21
156.4859968348
 31
0.0
  0
LINE
  5
4C
330
1F
100
AcDbEntity
  8
0
  6
Continuous
 62
     7
370
    15
100
AcDbLine
 10
89.3028047902
 20
158.72959017
 30
0.0
 11
88.8540861231
 21
158.72959017
 31
0.0
  0
LINE
  5
4D
330
1F
100
AcDbEntity
  8
0
  6
Continuous
 62
     7
370
    15
100
AcDbLine
 10
89.3028047902
 20
159.0436917468
 30
0.0
 11
89.3028047902
 21
158.72959017
 31
0.0
  0
LINE
  5
4E
330
1F
100
AcDbEntity
  8
0
  6
Continuous
 62
     7
370
    15
100
AcDbLine
 10
88.8540861231
 20
159.0436917468
 30
0.0
 11
89.3028047902
 21
159.0436917468
 31
0.0
  0
LINE
  5
4F
330
1F
100
AcDbEntity
  8
0
  6
Continuous
 62
     7
370
    15
100
AcDbLine
 10
88.8540861231
 20
160.0757461711
 30
0.0
 11
88.8540861231
 21
159.0436917468
 31
0.0
  0
LINE
  5
50
330
1F
100
AcDbEntity
  8
0
  6
Continuous
 62
     7
370
    15
100
AcDbLine
 10
88.5399845463
 20
160.0757461711
 30
0.0
 11
88.8540861231
 21
160.0757461711
 31
0.0
  0
LINE
  5
51
330
1F
100
AcDbEntity
  8
0
  6
Continuous
 62
     7
370
    15
100
AcDbLine
 10
88.5399845463
 20
159.0436917468
 30
0.0
 11
88.5399845463
 21
160.0757461711
 31
0.0
  0
LINE
  5
52
330
1F
100
AcDbEntity
  8
0
  6
Continuous
 62
     7
370
    15
100
AcDbLine
 10
82.437420733
 20
156.4859968348
 30
0.0
 11
82.1233191562
 21
156.4859968348
 31
0.0
  0
LINE
  5
53
330
1F
100
AcDbEntity
  8
0
  6
Continuous
 62
     7
370
    15
100
AcDbLine
 10
82.437420733
 20
157.4107777997
 30
0.0
 11
82.437420733
 21
156.4859968348
 31
0.0
  0
SPLINE
  5
54
330
1F
100
AcDbEntity
  8
0
  6
Continuous
 62
     7
370
    15
100
AcDbSpline
210
0.0
220
0.0
230
1.0
 70
     8
 71
     3
 72
    15
 73
    11
 74
     0
 42
0.00000001
 43
0.00000001
 12
1.0
 22
0.0
 32
0.0
 13
1.0
 23
0.0
 33
0.0
 40
0.0
 40
0.0
 40
0.0
 40
0.0
 40
0.076995454717054
 40
0.1676150771831828
 40
0.271052393634233
 40
0.3894595025720776
 40
0.5208428024655803
 40
0.6663987586080737
 40
0.8260936125153078
 40
1.0
 40
1.0
 40
1.0
 40
1.0
 10
82.48579842820759
 20
158.097177034335
 30
0.0
 10
82.4818587796319
 20
158.0799218312811
 30
0.0
 10
82.47328237077095
 20
158.0423581568757
 30
0.0
 10
82.4640191909121
 20
157.9807137374911
 30
0.0
 10
82.4556116155104
 20
157.909403762499
 30
0.0
 10
82.44857465689185
 20
157.8285114454431
 30
0.0
 10
82.44426924042125
 20
157.7377535703255
 30
0.0
 10
82.4395748436476
 20
157.6375177325216
 30
0.0
 10
82.43786578258123
 20
157.5274042441655
 30
0.0
 10
82.43757342856367
 20
157.4507425514407
 30
0.0
 10
82.43742102436144
 20
157.4107787971555
 30
0.0
  0
SPLINE
  5
55
330
1F
100
AcDbEntity
  8
0
  6
Continuous
 62
     7
370
    15
100
AcDbSpline
210
0.0
220
0.0
230
1.0
 70
     8
 71
     3
 72
    23
 73
    19
 74
     0
 42
0.00000001
 43
0.00000001
 12
1.0
 22
0.0
 32
0.0
 13
1.0
 23
0.0
 33
0.0
 40
0.0
 40
0.0
 40
0.0
 40
0.0
 40
0.0639861098164686
 40
0.1266268580894775
 40
0.1889843719814858
 40
0.2502301939603954
 40
0.3123511629623212
 40
0.3745736184579407
 40
0.4381475308782055
 40
0.5029204126073734
 40
0.5679740951402741
 40
0.6307713337491904
 40
0.6929346089254589
 40
0.7543975343123256
 40
0.8152183520172982
 40
0.87611692548109
 40
0.9380146047939586
 40
1.0
 40
1.0
 40
1.0
 40
1.0
 10
83.3558905756435
 20
158.7744606881812
 30
0.0
 10
83.33062289203862
 20
158.7739846835176
 30
0.0
 10
83.28061879903686
 20
158.7730426825872
 30
0.0
 10
83.20646882713072
 20
158.7635913845643
 30
0.0
 10
83.13454465395276
 20
158.7481329289659
 30
0.0
 10
83.06412444495798
 20
158.7272642914668
 30
0.0
 10
82.99661665122294
 20
158.698602022244
 30
0.0
 10
82.92985236004276
 20
158.6660726520192
 30
0.0
 10
82.8663455959129
 20
158.6255244400338
 30
0.0
 10
82.80474219878444
 20
158.580333818594
 30
0.0
 10
82.74742939113128
 20
158.5302546113965
 30
0.0
 10
82.69410105272061
 20
158.4774101012435
 30
0.0
 10
82.6465630324695
 20
158.4211344974475
 30
0.0
 10
82.60349435718584
 20
158.3623345499184
 30
0.0
 10
82.56631609380824
 20
158.3002027119213
 30
0.0
 10
82.53386300574593
 20
158.2353384054425
 30
0.0
 10
82.50632731095419
 20
158.1676562566186
 30
0.0
 10
82.49264461848435
 20
158.1206811953879
 30
0.0
 10
82.48579842820759
 20
158.097177034335
 30
0.0
  0
SPLINE
  5
56
330
1F
100
AcDbEntity
  8
0
  6
Continuous
 62
     7
370
    15
100
AcDbSpline
210
0.0
220
0.0
230
1.0
 70
     8
 71
     3
 72
    15
 73
    11
 74
     0
 42
0.00000001
 43
0.00000001
 12
1.0
 22
0.0
 32
0.0
 13
1.0
 23
0.0
 33
0.0
 40
0.0
 40
0.0
 40
0.0
 40
0.0
 40
0.1355195283705981
 40
0.2608331631936689
 40
0.3784760291244969
 40
0.493177646474674
 40
0.6092809649289358
 40
0.729981037856645
 40
0.8592613089300648
 40
1.0
 40
1.0
 40
1.0
 40
1.0
 10
84.01564618461785
 20
158.2710552394632
 30
0.0
 10
84.00502065311153
 20
158.3107664244109
 30
0.0
 10
83.98456979243682
 20
158.3871981690355
 30
0.0
 10
83.9340358093117
 20
158.4908725216568
 30
0.0
 10
83.87022162852432
 20
158.5790707094862
 30
0.0
 10
83.79232377915915
 20
158.6512474311105
 30
0.0
 10
83.70109470351878
 20
158.7074182678156
 30
0.0
 10
83.59678756075095
 20
158.7463922225427
 30
0.0
 10
83.48040892007862
 20
158.7707684917415
 30
0.0
 10
83.39855453740513
 20
158.7731956237569
 30
0.0
 10
83.3558905756435
 20
158.7744606881812
 30
0.0
  0
SPLINE
  5
57
330
1F
100
AcDbEntity
  8
0
  6
Continuous
 62
     7
370
    15
100
AcDbSpline
210
0.0
220
0.0
230
1.0
 70
     8
 71
     3
 72
    15
 73
    11
 74
     0
 42
0.00000001
 43
0.00000001
 12
1.0
 22
0.0
 32
0.0
 13
1.0
 23
0.0
 33
0.0
 40
0.0
 40
0.0
 40
0.0
 40
0.0
 40
0.178850019411152
 40
0.3421096489422886
 40
0.489825663368383
 40
0.6232544282245615
 40
0.7400796760857771
 40
0.8414826730699866
 40
0.9289076721840627
 40
1.0
 40
1.0
 40
1.0
 40
1.0
 10
84.05280563974605
 20
157.6891241497196
 30
0.0
 10
84.05261243172711
 20
157.7239465946484
 30
0.0
 10
84.05224285766863
 20
157.7905560054223
 30
0.0
 10
84.05107721098409
 20
157.8859250286127
 30
0.0
 10
84.04826740438112
 20
157.9724116070155
 30
0.0
 10
84.04431909146507
 20
158.0498089744209
 30
0.0
 10
84.03854006093583
 20
158.1180428109843
 30
0.0
 10
84.03251742958582
 20
158.1772520877227
 30
0.0
 10
84.02515245278889
 20
158.2273616301556
 30
0.0
 10
84.01858953965171
 20
158.2575267125387
 30
0.0
 10
84.01564618461785
 20
158.2710552394632
 30
0.0
  0
LINE
  5
58
330
1F
100
AcDbEntity
  8
0
  6
Continuous
 62
     7
370
    15
100
AcDbLine
 10
84.0528053266
 20
156.4859968348
 30
0.0
 11
84.0528053266
 21
157.6891240402
 31
0.0
  0
LINE
  5
59
330
1F
100
AcDbEntity
  8
0
  6
Continuous
 62
     7
370
    15
100
AcDbLine
 10
84.366908766
 20
156.4859968348
 30
0.0
 11
84.0528053266
 21
156.4859968348
 31
0.0
  0
LINE
  5
5A
330
1F
100
AcDbEntity
  8
0
  6
Continuous
 62
     7
370
    15
100
AcDbLine
 10
84.366908766
 20
157.7921879216
 30
0.0
 11
84.366908766
 21
156.4859968348
 31
0.0
  0
SPLINE
  5
5B
330
1F
100
AcDbEntity
  8
0
  6
Continuous
 62
     7
370
    15
100
AcDbSpline
210
0.0
220
0.0
230
1.0
 70
     8
 71
     3
 72
    23
 73
    19
 74
     0
 42
0.00000001
 43
0.00000001
 12
1.0
 22
0.0
 32
0.0
 13
1.0
 23
0.0
 33
0.0
 40
0.0
 40
0.0
 40
0.0
 40
0.0
 40
0.077240423616478
 40
0.1511781404663802
 40
0.223487983800397
 40
0.2955426441988692
 40
0.3669762546197856
 40
0.4371305254863825
 40
0.5070436156432703
 40
0.5785597335236752
 40
0.6166135446965545
 40
0.6587562369775256
 40
0.704491226114403
 40
0.7548031149051484
 40
0.8093316253185628
 40
0.8682744554728155
 40
0.9320728834092917
 40
0.9999999999999999
 40
0.9999999999999999
 40
0.9999999999999999
 40
0.9999999999999999
 10
83.41057807564349
 20
159.0885632522837
 30
0.0
 10
83.45790870976003
 20
159.0868180568425
 30
0.0
 10
83.55054617752384
 20
159.083402288399
 30
0.0
 10
83.68542423890592
 20
159.056385597288
 30
0.0
 10
83.8113976325927
 20
159.0102403421633
 30
0.0
 10
83.92801718838078
 20
158.9470282717603
 30
0.0
 10
84.03314440174341
 20
158.8684217983565
 30
0.0
 10
84.12546925321958
 20
158.7768440165973
 30
0.0
 10
84.20183250059716
 20
158.6715079333617
 30
0.0
 10
84.2530298635969
 20
158.5737847771252
 30
0.0
 10
84.28675551128786
 20
158.4870959828523
 30
0.0
 10
84.3079878488017
 20
158.4128492327535
 30
0.0
 10
84.32601883026106
 20
158.3301310815844
 30
0.0
 10
84.34165057827877
 20
158.2391914925301
 30
0.0
 10
84.3522276901462
 20
158.1393933022776
 30
0.0
 10
84.36056998167749
 20
158.0311456102247
 30
0.0
 10
84.36654867596579
 20
157.9144834797292
 30
0.0
 10
84.36678588295251
 20
157.8337968523192
 30
0.0
 10
84.36690820384862
 20
157.7921890535657
 30
0.0
  0
SPLINE
  5
5C
330
1F
100
AcDbEntity
  8
0
  6
Continuous
 62
     7
370
    15
100
AcDbSpline
210
0.0
220
0.0
230
1.0
 70
     8
 71
     3
 72
    15
 73
    11
 74
     0
 42
0.00000001
 43
0.00000001
 12
1.0
 22
0.0
 32
0.0
 13
1.0
 23
0.0
 33
0.0
 40
0.0
 40
0.0
 40
0.0
 40
0.0
 40
0.1409759662687734
 40
0.2735687809631704
 40
0.3989883138042528
 40
0.519929781392435
 40
0.6381100215247476
 40
0.7565889007405968
 40
0.8768597544106055
 40
1.0
 40
1.0
 40
1.0
 40
1.0
 10
82.43742102436144
 20
158.5823533163863
 30
0.0
 10
82.47095865949355
 20
158.6241960392239
 30
0.0
 10
82.53603961054013
 20
158.7053933027138
 30
0.0
 10
82.64442394381555
 20
158.8121138772739
 30
0.0
 10
82.75896784413814
 20
158.9000591023187
 30
0.0
 10
82.8789698476253
 20
158.970162896263
 30
0.0
 10
83.00459285772524
 20
159.0230095224117
 30
0.0
 10
83.13507112768832
 20
159.0611754534973
 30
0.0
 10
83.27118583377613
 20
159.0840602820369
 30
0.0
 10
83.36375027064967
 20
159.0870505123365
 30
0.0
 10
83.4105780756435
 20
159.0885632522837
 30
0.0
  0
LINE
  5
5D
330
1F
100
AcDbEntity
  8
0
  6
Continuous
 62
     7
370
    15
100
AcDbLine
 10
82.437420733
 20
159.0436917468
 30
0.0
 11
82.437420733
 21
158.5823517962
 31
0.0
  0
LINE
  5
5E
330
1F
100
AcDbEntity
  8
0
  6
Continuous
 62
     7
370
    15
100
AcDbLine
 10
82.1233191562
 20
159.0436917468
 30
0.0
 11
82.437420733
 21
159.0436917468
 31
0.0
  0
LINE
  5
5F
330
1F
100
AcDbEntity
  8
0
  6
Continuous
 62
     7
370
    15
100
AcDbLine
 10
82.1233191562
 20
156.4859968348
 30
0.0
 11
82.1233191562
 21
159.0436917468
 31
0.0
  0
LINE
  5
60
330
1F
100
AcDbEntity
  8
0
  6
Continuous
 62
     7
370
    15
100
AcDbLine
 10
80.1040870172
 20
156.4859968348
 30
0.0
 11
79.7899854404
 21
156.4859968348
 31
0.0
  0
LINE
  5
61
330
1F
100
AcDbEntity
  8
0
  6
Continuous
 62
     7
370
    15
100
AcDbLine
 10
80.1040870172
 20
160.0757461711
 30
0.0
 11
80.1040870172
 21
156.4859968348
 31
0.0
  0
LINE
  5
62
330
1F
100
AcDbEntity
  8
0
  6
Continuous
 62
     7
370
    15
100
AcDbLine
 10
79.7899854404
 20
160.0757461711
 30
0.0
 11
80.1040870172
 21
160.0757461711
 31
0.0
  0
LINE
  5
63
330
1F
100
AcDbEntity
  8
0
  6
Continuous
 62
     7
370
    15
100
AcDbLine
 10
79.7899854404
 20
156.4859968348
 30
0.0
 11
79.7899854404
 21
160.0757461711
 31
0.0
  0
LINE
  5
64
330
1F
100
AcDbEntity
  8
0
  6
Continuous
 62
     7
370
    15
100
AcDbLine
 10
75.4822925699
 20
156.4859968348
 30
0.0
 11
75.1681909931
 21
156.4859968348
 31
0.0
  0
LINE
  5
65
330
1F
100
AcDbEntity
  8
0
  6
Continuous
 62
     7
370
    15
100
AcDbLine
 10
75.4822925699
 20
157.3455777689
 30
0.0
 11
75.4822925699
 21
156.4859968348
 31
0.0
  0
SPLINE
  5
66
330
1F
100
AcDbEntity
  8
0
  6
Continuous
 62
     7
370
    15
100
AcDbSpline
210
0.0
220
0.0
230
1.0
 70
     8
 71
     3
 72
    15
 73
    11
 74
     0
 42
0.00000001
 43
0.00000001
 12
1.0
 22
0.0
 32
0.0
 13
1.0
 23
0.0
 33
0.0
 40
0.0
 40
0.0
 40
0.0
 40
0.0
 40
0.0708548685015414
 40
0.1569381495573541
 40
0.2586003949600865
 40
0.3758909295892008
 40
0.508166167698909
 40
0.6562378085782328
 40
0.8201767703979169
 40
1.0
 40
1.0
 40
1.0
 40
1.0
 10
75.53838256282297
 20
158.223378957412
 30
0.0
 10
75.5336501694579
 20
158.2031017838331
 30
0.0
 10
75.52316827776295
 20
158.1581893851933
 30
0.0
 10
75.5129767399193
 20
158.0828408604715
 30
0.0
 10
75.50290722194278
 20
157.9938172017075
 30
0.0
 10
75.49581060359203
 20
157.8908706088239
 30
0.0
 10
75.48923256146475
 20
157.7742581648958
 30
0.0
 10
75.4855224792376
 20
157.6438022192722
 30
0.0
 10
75.48241933868086
 20
157.4993688681301
 30
0.0
 10
75.48233627180996
 20
157.3983945148979
 30
0.0
 10
75.48229281923322
 20
157.3455744702325
 30
0.0
  0
SPLINE
  5
67
330
1F
100
AcDbEntity
  8
0
  6
Continuous
 62
     7
370
    15
100
AcDbSpline
210
0.0
220
0.0
230
1.0
 70
     8
 71
     3
 72
    19
 73
    15
 74
     0
 42
0.00000001
 43
0.00000001
 12
1.0
 22
0.0
 32
0.0
 13
1.0
 23
0.0
 33
0.0
 40
0.0
 40
0.0
 40
0.0
 40
0.0
 40
0.0938065293523325
 40
0.1913381281363388
 40
0.2951906166251709
 40
0.4103123367232955
 40
0.4719302510512787
 40
0.5364251593464359
 40
0.6031187283036339
 40
0.6741176724906007
 40
0.7493320232258878
 40
0.828283384171575
 40
0.9120398092627683
 40
0.9999999999999999
 40
0.9999999999999999
 40
0.9999999999999999
 40
0.9999999999999999
 10
76.04669586410502
 20
158.7744606881812
 30
0.0
 10
76.021490130594
 20
158.7727806508126
 30
0.0
 10
75.97007774062926
 20
158.7693538615739
 30
0.0
 10
75.89459324121952
 20
158.742415053807
 30
0.0
 10
75.8213460357182
 20
158.6988898136938
 30
0.0
 10
75.76317437338216
 20
158.6506187018429
 30
0.0
 10
75.71813212050735
 20
158.6040709043785
 30
0.0
 10
75.68599189497657
 20
158.5634225018115
 30
0.0
 10
75.65650914802289
 20
158.5178438702831
 30
0.0
 10
75.6283389276224
 20
158.4681141864798
 30
0.0
 10
75.60267263341326
 20
158.4133843404475
 30
0.0
 10
75.57871796420953
 20
158.3542011270256
 30
0.0
 10
75.55705910128714
 20
158.2904959982558
 30
0.0
 10
75.54470885706291
 20
158.2461134780356
 30
0.0
 10
75.53838256282297
 20
158.223378957412
 30
0.0
  0
SPLINE
  5
68
330
1F
100
AcDbEntity
  8
0
  6
Continuous
 62
     7
370
    15
100
AcDbSpline
210
0.0
220
0.0
230
1.0
 70
     8
 71
     3
 72
    11
 73
     7
 74
     0
 42
0.00000001
 43
0.00000001
 12
1.0
 22
0.0
 32
0.0
 13
1.0
 23
0.0
 33
0.0
 40
0.0
 40
0.0
 40
0.0
 40
0.0
 40
0.295138801369366
 40
0.5602299448882069
 40
0.7949833567409007
 40
1.0
 40
1.0
 40
1.0
 40
1.0
 10
76.20725275513067
 20
158.7288877715145
 30
0.0
 10
76.19214373398681
 20
158.7356280376297
 30
0.0
 10
76.16346391946067
 20
158.7484223530389
 30
0.0
 10
76.1215093531919
 20
158.7635643631709
 30
0.0
 10
76.08282801646104
 20
158.772480279019
 30
0.0
 10
76.05818445809815
 20
158.7738309964712
 30
0.0
 10
76.04669586410502
 20
158.7744606881812
 30
0.0
  0
LINE
  5
69
330
1F
100
AcDbEntity
  8
0
  6
Continuous
 62
     7
370
    15
100
AcDbLine
 10
76.3797280413
 20
159.0009254142
 30
0.0
 11
76.2072526884
 21
158.7288898154
 31
0.0
  0
SPLINE
  5
6A
330
1F
100
AcDbEntity
  8
0
  6
Continuous
 62
     7
370
    15
100
AcDbSpline
210
0.0
220
0.0
230
1.0
 70
     8
 71
     3
 72
    11
 73
     7
 74
     0
 42
0.00000001
 43
0.00000001
 12
1.0
 22
0.0
 32
0.0
 13
1.0
 23
0.0
 33
0.0
 40
0.0
 40
0.0
 40
0.0
 40
0.0
 40
0.2252775478670006
 40
0.4635231951764709
 40
0.7203235553269173
 40
1.0
 40
1.0
 40
1.0
 40
1.0
 10
76.10629121666913
 20
159.0885632522837
 30
0.0
 10
76.12811754315582
 20
159.0873727256888
 30
0.0
 10
76.17302662836146
 20
159.0849231398493
 30
0.0
 10
76.2410092181657
 20
159.0677123152075
 30
0.0
 10
76.3110526700753
 20
159.0402342926544
 30
0.0
 10
76.35619505732583
 20
159.0143940699894
 30
0.0
 10
76.37972871666912
 20
159.0009230279248
 30
0.0
  0
SPLINE
  5
6B
330
1F
100
AcDbEntity
  8
0
  6
Continuous
 62
     7
370
    15
100
AcDbSpline
210
0.0
220
0.0
230
1.0
 70
     8
 71
     3
 72
    15
 73
    11
 74
     0
 42
0.00000001
 43
0.00000001
 12
1.0
 22
0.0
 32
0.0
 13
1.0
 23
0.0
 33
0.0
 40
0.0
 40
0.0
 40
0.0
 40
0.0
 40
0.1600594124854894
 40
0.3061123827401222
 40
0.4383665141302073
 40
0.5605414552552148
 40
0.6753172249527001
 40
0.7861136344281764
 40
0.8928417881050853
 40
1.0
 40
1.0
 40
1.0
 40
1.0
 10
75.48229281923322
 20
158.6671890535658
 30
0.0
 10
75.50548157798454
 20
158.7022448818917
 30
0.0
 10
75.54982989892312
 20
158.7692888811862
 30
0.0
 10
75.62354282827685
 20
158.8579581821781
 30
0.0
 10
75.69904615955528
 20
158.9313732287895
 30
0.0
 10
75.7767013468578
 20
158.9898767475594
 30
0.0
 10
75.85707944676797
 20
159.0336898663832
 30
0.0
 10
75.93841639848594
 20
159.0657829014148
 30
0.0
 10
76.02199186834342
 20
159.0847602166521
 30
0.0
 10
76.0781537925713
 20
159.0872938756094
 30
0.0
 10
76.10629121666913
 20
159.0885632522837
 30
0.0
  0
LINE
  5
6C
330
1F
100
AcDbEntity
  8
0
  6
Continuous
 62
     7
370
    15
100
AcDbLine
 10
75.4822925699
 20
159.0436917468
 30
0.0
 11
75.4822925699
 21
158.6671915575
 31
0.0
  0
LINE
  5
6D
330
1F
100
AcDbEntity
  8
0
  6
Continuous
 62
     7
370
    15
100
AcDbLine
 10
75.1681909931
 20
159.0436917468
 30
0.0
 11
75.4822925699
 21
159.0436917468
 31
0.0
  0
LINE
  5
6E
330
1F
100
AcDbEntity
  8
0
  6
Continuous
 62
     7
370
    15
100
AcDbLine
 10
75.1681909931
 20
156.4859968348
 30
0.0
 11
75.1681909931
 21
159.0436917468
 31
0.0
  0
LINE
  5
6F
330
1F
100
AcDbEntity
  8
0
  6
Continuous
 62
     7
370
    15
100
AcDbLine
 10
67.8540873376
 20
156.4859968348
 30
0.0
 11
67.5399848294
 21
156.4859968348
 31
0.0
  0
LINE
  5
70
330
1F
100
AcDbEntity
  8
0
  6
Continuous
 62
     7
370
    15
100
AcDbLine
 10
67.8540873376
 20
157.5622183009
 30
0.0
 11
67.8540873376
 21
156.4859968348
 31
0.0
  0
SPLINE
  5
71
330
1F
100
AcDbEntity
  8
0
  6
Continuous
 62
     7
370
    15
100
AcDbSpline
210
0.0
220
0.0
230
1.0
 70
     8
 71
     3
 72
    23
 73
    19
 74
     0
 42
0.00000001
 43
0.00000001
 12
1.0
 22
0.0
 32
0.0
 13
1.0
 23
0.0
 33
0.0
 40
0.0
 40
0.0
 40
0.0
 40
0.0
 40
0.0686770684130356
 40
0.1368709585090951
 40
0.2061143571452983
 40
0.2775381819697254
 40
0.3497719775548979
 40
0.4212508361555692
 40
0.4929107569233701
 40
0.5670265889927354
 40
0.606614153241336
 40
0.649703953518985
 40
0.6973031504846849
 40
0.749085659709137
 40
0.8048806474593095
 40
0.8654850057023353
 40
0.9302371271531322
 40
1.0
 40
1.0
 40
1.0
 40
1.0
 10
68.68141140897683
 20
158.7744606881812
 30
0.0
 10
68.64339519752389
 20
158.7729302281642
 30
0.0
 10
68.56763023811772
 20
158.7698800756994
 30
0.0
 10
68.45632826846263
 20
158.7424258018508
 30
0.0
 10
68.34884258484492
 20
158.6994217270921
 30
0.0
 10
68.24688788605155
 20
158.6397619080061
 30
0.0
 10
68.15321373774533
 20
158.5658628294093
 30
0.0
 10
68.07120547045096
 20
158.4789479336374
 30
0.0
 10
68.00226294492681
 20
158.3800989001253
 30
0.0
 10
67.95653113002474
 20
158.2879343836098
 30
0.0
 10
67.92703265590316
 20
158.2063611087125
 30
0.0
 10
67.90743732122581
 20
158.1370101610385
 30
0.0
 10
67.89059769541365
 20
158.0600099127564
 30
0.0
 10
67.87808367370948
 20
157.9751228016721
 30
0.0
 10
67.86600325810181
 20
157.8829017075366
 30
0.0
 10
67.86017294902445
 20
157.7828872178269
 30
0.0
 10
67.85450138687011
 20
157.675165130125
 30
0.0
 10
67.85422897217043
 20
157.6007925848831
 30
0.0
 10
67.8540876910281
 20
157.5622211048478
 30
0.0
  0
SPLINE
  5
72
330
1F
100
AcDbEntity
  8
0
  6
Continuous
 62
     7
370
    15
100
AcDbSpline
210
0.0
220
0.0
230
1.0
 70
     8
 71
     3
 72
    23
 73
    19
 74
     0
 42
0.00000001
 43
0.00000001
 12
1.0
 22
0.0
 32
0.0
 13
1.0
 23
0.0
 33
0.0
 40
0.0
 40
0.0
 40
0.0
 40
0.0
 40
0.0825297038220728
 40
0.1587788549175743
 40
0.2277380621151837
 40
0.2899456527966824
 40
0.345498838698138
 40
0.3938963373401196
 40
0.4363737851900928
 40
0.4721222744615275
 40
0.5363836155048252
 40
0.5990779017254985
 40
0.6619482340244581
 40
0.7263105423531532
 40
0.7917711030502091
 40
0.8586473037978587
 40
0.9273053338076832
 40
1.0
 40
1.0
 40
1.0
 40
1.0
 10
69.28998512692554
 20
157.7865800792068
 30
0.0
 10
69.28990569594929
 20
157.8232733979721
 30
0.0
 10
69.28975287873477
 20
157.8938676551529
 30
0.0
 10
69.28707656141846
 20
157.9951013304637
 30
0.0
 10
69.28198993972234
 20
158.0871824105567
 30
0.0
 10
69.27610939135619
 20
158.1700038743901
 30
0.0
 10
69.26764921283804
 20
158.2434152031508
 30
0.0
 10
69.25803945072825
 20
158.3078099611533
 30
0.0
 10
69.24669084020154
 20
158.3630267122365
 30
0.0
 10
69.22790095558048
 20
158.4235900970996
 30
0.0
 10
69.19918648729103
 20
158.4903110200837
 30
0.0
 10
69.15299822530318
 20
158.5614520412661
 30
0.0
 10
69.09539064492213
 20
158.6237201387887
 30
0.0
 10
69.02781976905761
 20
158.6768788872242
 30
0.0
 10
68.95181408686739
 20
158.7208203685227
 30
0.0
 10
68.86783068605851
 20
158.7524801203092
 30
0.0
 10
68.77662577322201
 20
158.7709044099315
 30
0.0
 10
68.71374806731303
 20
158.7732529066073
 30
0.0
 10
68.68141140897683
 20
158.7744606881812
 30
0.0
  0
LINE
  5
73
330
1F
100
AcDbEntity
  8
0
  6
Continuous
 62
     7
370
    15
100
AcDbLine
 10
69.2899855819
 20
156.4859968348
 30
0.0
 11
69.2899855819
 21
157.7865776344
 31
0.0
  0
LINE
  5
74
330
1F
100
AcDbEntity
  8
0
  6
Continuous
 62
     7
370
    15
100
AcDbLine
 10
69.6040880901
 20
156.4859968348
 30
0.0
 11
69.2899855819
 21
156.4859968348
 31
0.0
  0
LINE
  5
75
330
1F
100
AcDbEntity
  8
0
  6
Continuous
 62
     7
370
    15
100
AcDbLine
 10
69.6040880901
 20
157.4808877631
 30
0.0
 11
69.6040880901
 21
156.4859968348
 31
0.0
  0
SPLINE
  5
76
330
1F
100
AcDbEntity
  8
0
  6
Continuous
 62
     7
370
    15
100
AcDbSpline
210
0.0
220
0.0
230
1.0
 70
     8
 71
     3
 72
    23
 73
    19
 74
     0
 42
0.00000001
 43
0.00000001
 12
1.0
 22
0.0
 32
0.0
 13
1.0
 23
0.0
 33
0.0
 40
0.0
 40
0.0
 40
0.0
 40
0.0
 40
0.0681582441559979
 40
0.1347066022023564
 40
0.2018649976035975
 40
0.2707882662774611
 40
0.340024294360492
 40
0.4080827390537227
 40
0.476813195258145
 40
0.5473460643071002
 40
0.5856397954238983
 40
0.6288649531777704
 40
0.6771532033637913
 40
0.7308028113651062
 40
0.7898066155325087
 40
0.8543250087420177
 40
0.9243651340575502
 40
1.0
 40
1.0
 40
1.0
 40
1.0
 10
70.43351477436144
 20
158.7744606881812
 30
0.0
 10
70.39384481998812
 20
158.7730445307946
 30
0.0
 10
70.31544190880217
 20
158.7702456654176
 30
0.0
 10
70.20099642259407
 20
158.7416717924544
 30
0.0
 10
70.09102540598711
 20
158.6985915417948
 30
0.0
 10
69.98881027306216
 20
158.6361590846714
 30
0.0
 10
69.89478248244542
 20
158.5613507208194
 30
0.0
 10
69.8138829046598
 20
158.47240112506
 30
0.0
 10
69.74705071899804
 20
158.3717711981249
 30
0.0
 10
69.70179674305724
 20
158.2786244958091
 30
0.0
 10
69.67320744181238
 20
158.194955051928
 30
0.0
 10
69.65433052606753
 20
158.12185767993
 30
0.0
 10
69.63964713459765
 20
158.0387761120969
 30
0.0
 10
69.62587660538642
 20
157.9462686212327
 30
0.0
 10
69.61688887741975
 20
157.8436984408807
 30
0.0
 10
69.60872050509538
 20
157.7315400398808
 30
0.0
 10
69.60489964228144
 20
157.6094560804449
 30
0.0
 10
69.60436518352199
 20
157.5248293918311
 30
0.0
 10
69.6040876910281
 20
157.4808909766427
 30
0.0
  0
SPLINE
  5
77
330
1F
100
AcDbEntity
  8
0
  6
Continuous
 62
     7
370
    15
100
AcDbSpline
210
0.0
220
0.0
230
1.0
 70
     8
 71
     3
 72
    23
 73
    19
 74
     0
 42
0.00000001
 43
0.00000001
 12
1.0
 22
0.0
 32
0.0
 13
1.0
 23
0.0
 33
0.0
 40
0.0
 40
0.0
 40
0.0
 40
0.0
 40
0.0783429851936998
 40
0.1505633028794195
 40
0.2161510566599787
 40
0.2756797924514213
 40
0.3287070503654635
 40
0.3759044348322066
 40
0.4173018977400305
 40
0.4526927480535819
 40
0.5172652917530158
 40
0.5812165680623057
 40
0.6453218939727982
 40
0.7120244933797659
 40
0.7801300447160427
 40
0.8502182262116641
 40
0.9226485217347371
 40
1.0
 40
1.0
 40
1.0
 40
1.0
 10
71.03998512692554
 20
157.8728180599761
 30
0.0
 10
71.03990724394951
 20
157.9055386339135
 30
0.0
 10
71.03975756471428
 20
157.968422600767
 30
0.0
 10
71.0370639331501
 20
158.0586750519747
 30
0.0
 10
71.0319886190944
 20
158.1409434092177
 30
0.0
 10
71.02605398032733
 20
158.2151154973612
 30
0.0
 10
71.01781017094679
 20
158.2813642858578
 30
0.0
 10
71.0071642392121
 20
158.3395567044259
 30
0.0
 10
70.99588655931336
 20
158.3901505157866
 30
0.0
 10
70.97715056820454
 20
158.4462365633848
 30
0.0
 10
70.9472026765887
 20
158.508106773868
 30
0.0
 10
70.90158519655564
 20
158.5748303496632
 30
0.0
 10
70.8441150902909
 20
158.6329111498465
 30
0.0
 10
70.77775493372778
 20
158.6833294666646
 30
0.0
 10
70.70220648903411
 20
158.7243231077625
 30
0.0
 10
70.61894176586932
 20
158.753599117465
 30
0.0
 10
70.52847771427487
 20
158.7717219958774
 30
0.0
 10
70.46585492586416
 20
158.7735280114537
 30
0.0
 10
70.43351477436144
 20
158.7744606881812
 30
0.0
  0
LINE
  5
78
330
1F
100
AcDbEntity
  8
0
  6
Continuous
 62
     7
370
    15
100
AcDbLine
 10
71.0399854031
 20
156.4859968348
 30
0.0
 11
71.0399854031
 21
157.8728181048
 31
0.0
  0
LINE
  5
79
330
1F
100
AcDbEntity
  8
0
  6
Continuous
 62
     7
370
    15
100
AcDbLine
 10
71.3540879113
 20
156.4859968348
 30
0.0
 11
71.0399854031
 21
156.4859968348
 31
0.0
  0
LINE
  5
7A
330
1F
100
AcDbEntity
  8
0
  6
Continuous
 62
     7
370
    15
100
AcDbLine
 10
71.3540879113
 20
157.8714173957
 30
0.0
 11
71.3540879113
 21
156.4859968348
 31
0.0
  0
SPLINE
  5
7B
330
1F
100
AcDbEntity
  8
0
  6
Continuous
 62
     7
370
    15
100
AcDbSpline
210
0.0
220
0.0
230
1.0
 70
     8
 71
     3
 72
    23
 73
    19
 74
     0
 42
0.00000001
 43
0.00000001
 12
1.0
 22
0.0
 32
0.0
 13
1.0
 23
0.0
 33
0.0
 40
0.0
 40
0.0
 40
0.0
 40
0.0
 40
0.0756043304957456
 40
0.1479650154827353
 40
0.2187969985236991
 40
0.2894704453213794
 40
0.3597242180874991
 40
0.4297077387530457
 40
0.5004965198485851
 40
0.574429019867952
 40
0.6139472962286702
 40
0.6571552698261071
 40
0.7039727697209356
 40
0.7549389848168007
 40
0.8097066112894876
 40
0.8688329536985481
 40
0.9323854739326017
 40
1.0
 40
1.0
 40
1.0
 40
1.0
 10
70.48820227436144
 20
159.0885632522837
 30
0.0
 10
70.53108373718
 20
159.086946031426
 30
0.0
 10
70.61500692343486
 20
159.0837809731855
 30
0.0
 10
70.73718418914771
 20
159.0589274998501
 30
0.0
 10
70.85112599447207
 20
159.0162498527324
 30
0.0
 10
70.95660307060153
 20
158.9580162161621
 30
0.0
 10
71.05176288401067
 20
158.8848370328578
 30
0.0
 10
71.13447919319457
 20
158.7977681952399
 30
0.0
 10
71.20424955653058
 20
158.6974255722286
 30
0.0
 10
71.2498281962275
 20
158.6030335835345
 30
0.0
 10
71.2807434604574
 20
158.519698250686
 30
0.0
 10
71.29980469478332
 20
158.448691959378
 30
0.0
 10
71.31664438986986
 20
158.3705404064578
 30
0.0
 10
71.3306256351329
 20
158.2851501449547
 30
0.0
 10
71.34084418722858
 20
158.1922195366519
 30
0.0
 10
71.34841490271643
 20
158.091900660769
 30
0.0
 10
71.35353897627476
 20
157.9841155491471
 30
0.0
 10
71.35390104853629
 20
157.9097500489197
 30
0.0
 10
71.35408769102811
 20
157.8714158163863
 30
0.0
  0
SPLINE
  5
7C
330
1F
100
AcDbEntity
  8
0
  6
Continuous
 62
     7
370
    15
100
AcDbSpline
210
0.0
220
0.0
230
1.0
 70
     8
 71
     3
 72
    19
 73
    15
 74
     0
 42
0.00000001
 43
0.00000001
 12
1.0
 22
0.0
 32
0.0
 13
1.0
 23
0.0
 33
0.0
 40
0.0
 40
0.0
 40
0.0
 40
0.0
 40
0.0717660641583448
 40
0.1412255357663683
 40
0.2091158524974582
 40
0.2748396534685288
 40
0.3394829303752206
 40
0.4024762667354001
 40
0.4649418891713277
 40
0.5268326406463841
 40
0.6474148160608211
 40
0.765561511785947
 40
0.8816150870393311
 40
1.0
 40
1.0
 40
1.0
 40
1.0
 10
69.55010131282296
 20
158.4708749510017
 30
0.0
 10
69.56381256417869
 20
158.4955993702768
 30
0.0
 10
69.59079438130144
 20
158.5442535552261
 30
0.0
 10
69.63610001837411
 20
158.613111817471
 30
0.0
 10
69.68356781485244
 20
158.6775186093164
 30
0.0
 10
69.73360230791302
 20
158.7375250336865
 30
0.0
 10
69.78602689475362
 20
158.7928347641005
 30
0.0
 10
69.8410882950538
 20
158.8436306657548
 30
0.0
 10
69.89847307647733
 20
158.8901308794395
 30
0.0
 10
69.97826531639002
 20
158.9444540389531
 30
0.0
 10
70.08207792377684
 20
159.0021552203156
 30
0.0
 10
70.21296603847469
 20
159.0521836643243
 30
0.0
 10
70.34911621006381
 20
159.0830997926833
 30
0.0
 10
70.44153390837127
 20
159.0867300655192
 30
0.0
 10
70.48820227436144
 20
159.0885632522837
 30
0.0
  0
SPLINE
  5
7D
330
1F
100
AcDbEntity
  8
0
  6
Continuous
 62
     7
370
    15
100
AcDbSpline
210
0.0
220
0.0
230
1.0
 70
     8
 71
     3
 72
    19
 73
    15
 74
     0
 42
0.00000001
 43
0.00000001
 12
1.0
 22
0.0
 32
0.0
 13
1.0
 23
0.0
 33
0.0
 40
0.0
 40
0.0
 40
0.0
 40
0.0
 40
0.0841520188443164
 40
0.1665323202984584
 40
0.2488363311465319
 40
0.3312461454872593
 40
0.4129571090216164
 40
0.4904942776695653
 40
0.5661557919819223
 40
0.6399873346864628
 40
0.7167654882718508
 40
0.8021439047101026
 40
0.8958332007101957
 40
1.0
 40
1.0
 40
1.0
 40
1.0
 10
68.73609890897681
 20
159.0885632522837
 30
0.0
 10
68.76699190554434
 20
159.0875179615033
 30
0.0
 10
68.82812748458353
 20
159.0854493872557
 30
0.0
 10
68.91871157468368
 20
159.071989352079
 30
0.0
 10
69.0065701865167
 20
159.0487231790594
 30
0.0
 10
69.09118421584607
 20
159.016315855092
 30
0.0
 10
69.17090489512492
 20
158.9770691681779
 30
0.0
 10
69.24399409287525
 20
158.9310194602612
 30
0.0
 10
69.309618301058
 20
158.8793223848556
 30
0.0
 10
69.36774435236615
 20
158.8196434518705
 30
0.0
 10
69.42001337776209
 20
158.75030685335
 30
0.0
 10
69.46809222439207
 20
158.6694426044464
 30
0.0
 10
69.51251743676947
 20
158.5752349433907
 30
0.0
 10
69.53713874560155
 20
158.5068684024127
 30
0.0
 10
69.55010131282296
 20
158.4708749510017
 30
0.0
  0
SPLINE
  5
7E
330
1F
100
AcDbEntity
  8
0
  6
Continuous
 62
     7
370
    15
100
AcDbSpline
210
0.0
220
0.0
230
1.0
 70
     8
 71
     3
 72
    11
 73
     7
 74
     0
 42
0.00000001
 43
0.00000001
 12
1.0
 22
0.0
 32
0.0
 13
1.0
 23
0.0
 33
0.0
 40
0.0
 40
0.0
 40
0.0
 40
0.0
 40
0.25373407569066
 40
0.5030351201318589
 40
0.7500135973308802
 40
1.0
 40
1.0
 40
1.0
 40
1.0
 10
68.20885531923322
 20
158.9588557202324
 30
0.0
 10
68.25071998141847
 20
158.9788610854777
 30
0.0
 10
68.33371788114601
 20
159.018522298825
 30
0.0
 10
68.46513710606781
 20
159.0587558577885
 30
0.0
 10
68.59961177560426
 20
159.0834809590972
 30
0.0
 10
68.69041998950763
 20
159.0868623325307
 30
0.0
 10
68.73609890897681
 20
159.0885632522837
 30
0.0
  0
SPLINE
  5
7F
330
1F
100
AcDbEntity
  8
0
  6
Continuous
 62
     7
370
    15
100
AcDbSpline
210
0.0
220
0.0
230
1.0
 70
     8
 71
     3
 72
    11
 73
     7
 74
     0
 42
0.00000001
 43
0.00000001
 12
1.0
 22
0.0
 32
0.0
 13
1.0
 23
0.0
 33
0.0
 40
0.0
 40
0.0
 40
0.0
 40
0.0
 40
0.2835948081386833
 40
0.5433948405759527
 40
0.7806456291745494
 40
1.0
 40
1.0
 40
1.0
 40
1.0
 10
67.8540876910281
 20
158.5991802394632
 30
0.0
 10
67.8823716409423
 20
158.638067841193
 30
0.0
 10
67.93656640055501
 20
158.7125802142547
 30
0.0
 10
68.02543205304733
 20
158.8107704984907
 30
0.0
 10
68.11420816552652
 20
158.8940986531448
 30
0.0
 10
68.1781415472947
 20
158.9378415247491
 30
0.0
 10
68.20885531923322
 20
158.9588557202324
 30
0.0
  0
LINE
  5
80
330
1F
100
AcDbEntity
  8
0
  6
Continuous
 62
     7
370
    15
100
AcDbLine
 10
67.8540873376
 20
159.0436917468
 30
0.0
 11
67.8540873376
 21
158.5991826578
 31
0.0
  0
LINE
  5
81
330
1F
100
AcDbEntity
  8
0
  6
Continuous
 62
     7
370
    15
100
AcDbLine
 10
67.5399848294
 20
159.0436917468
 30
0.0
 11
67.8540873376
 21
159.0436917468
 31
0.0
  0
LINE
  5
82
330
1F
100
AcDbEntity
  8
0
  6
Continuous
 62
     7
370
    15
100
AcDbLine
 10
67.5399848294
 20
156.4859968348
 30
0.0
 11
67.5399848294
 21
159.0436917468
 31
0.0
  0
LINE
  5
83
330
1F
100
AcDbEntity
  8
0
  6
Continuous
 62
     7
370
    15
100
AcDbLine
 10
87.6053893042
 20
165.5629199668
 30
0.0
 11
86.2515238148
 21
165.5629199668
 31
0.0
  0
LINE
  5
84
330
1F
100
AcDbEntity
  8
0
  6
Continuous
 62
     7
370
    15
100
AcDbLine
 10
86.1169085872
 20
163.3193340822
 30
0.0
 11
87.6053893042
 21
165.5629199668
 31
0.0
  0
LINE
  5
85
330
1F
100
AcDbEntity
  8
0
  6
Continuous
 62
     7
370
    15
100
AcDbLine
 10
88.1361388636
 20
163.3193340822
 30
0.0
 11
86.1169085872
 21
163.3193340822
 31
0.0
  0
LINE
  5
86
330
1F
100
AcDbEntity
  8
0
  6
Continuous
 62
     7
370
    15
100
AcDbLine
 10
88.1361388636
 20
163.633435659
 30
0.0
 11
88.1361388636
 21
163.3193340822
 31
0.0
  0
LINE
  5
87
330
1F
100
AcDbEntity
  8
0
  6
Continuous
 62
     7
370
    15
100
AcDbLine
 10
86.6932296229
 20
163.633435659
 30
0.0
 11
88.1361388636
 21
163.633435659
 31
0.0
  0
LINE
  5
88
330
1F
100
AcDbEntity
  8
0
  6
Continuous
 62
     7
370
    15
100
AcDbLine
 10
88.1810099852
 20
165.8770215436
 30
0.0
 11
86.6932296229
 21
163.633435659
 31
0.0
  0
LINE
  5
89
330
1F
100
AcDbEntity
  8
0
  6
Continuous
 62
     7
370
    15
100
AcDbLine
 10
86.2515238148
 20
165.8770215436
 30
0.0
 11
88.1810099852
 21
165.8770215436
 31
0.0
  0
LINE
  5
8A
330
1F
100
AcDbEntity
  8
0
  6
Continuous
 62
     7
370
    15
100
AcDbLine
 10
86.2515238148
 20
165.5629199668
 30
0.0
 11
86.2515238148
 21
165.8770215436
 31
0.0
  0
LINE
  5
8B
330
1F
100
AcDbEntity
  8
0
  6
Continuous
 62
     7
370
    15
100
AcDbLine
 10
79.632934652
 20
165.843367271
 30
0.0
 11
79.2984985781
 21
163.3193340822
 31
0.0
  0
LINE
  5
8C
330
1F
100
AcDbEntity
  8
0
  6
Continuous
 62
     7
370
    15
100
AcDbLine
 10
80.9012637508
 20
163.3193340822
 30
0.0
 11
79.632934652
 21
165.843367271
 31
0.0
  0
LINE
  5
8D
330
1F
100
AcDbEntity
  8
0
  6
Continuous
 62
     7
370
    15
100
AcDbLine
 10
80.9720759314
 20
163.3193340822
 30
0.0
 11
80.9012637508
 21
163.3193340822
 31
0.0
  0
LINE
  5
8E
330
1F
100
AcDbEntity
  8
0
  6
Continuous
 62
     7
370
    15
100
AcDbLine
 10
82.2354988229
 20
165.8377644344
 30
0.0
 11
80.9720759314
 21
163.3193340822
 31
0.0
  0
LINE
  5
8F
330
1F
100
AcDbEntity
  8
0
  6
Continuous
 62
     7
370
    15
100
AcDbLine
 10
82.5706333888
 20
163.3193340822
 30
0.0
 11
82.2354988229
 21
165.8377644344
 31
0.0
  0
LINE
  5
90
330
1F
100
AcDbEntity
  8
0
  6
Continuous
 62
     7
370
    15
100
AcDbLine
 10
82.8861394
 20
163.3193340822
 30
0.0
 11
82.5706333888
 21
163.3193340822
 31
0.0
  0
LINE
  5
91
330
1F
100
AcDbEntity
  8
0
  6
Continuous
 62
     7
370
    15
100
AcDbLine
 10
82.4212958139
 20
166.8193337246
 30
0.0
 11
82.8861394
 21
163.3193340822
 31
0.0
  0
LINE
  5
92
330
1F
100
AcDbEntity
  8
0
  6
Continuous
 62
     7
370
    15
100
AcDbLine
 10
82.3757224751
 20
166.8193337246
 30
0.0
 11
82.4212958139
 21
166.8193337246
 31
0.0
  0
LINE
  5
93
330
1F
100
AcDbEntity
  8
0
  6
Continuous
 62
     7
370
    15
100
AcDbLine
 10
80.9342158061
 20
163.9475372358
 30
0.0
 11
82.3757224751
 21
166.8193337246
 31
0.0
  0
LINE
  5
94
330
1F
100
AcDbEntity
  8
0
  6
Continuous
 62
     7
370
    15
100
AcDbLine
 10
79.489203639
 20
166.8193337246
 30
0.0
 11
80.9342158061
 21
163.9475372358
 31
0.0
  0
LINE
  5
95
330
1F
100
AcDbEntity
  8
0
  6
Continuous
 62
     7
370
    15
100
AcDbLine
 10
79.4443325174
 20
166.8193337246
 30
0.0
 11
79.489203639
 21
166.8193337246
 31
0.0
  0
LINE
  5
96
330
1F
100
AcDbEntity
  8
0
  6
Continuous
 62
     7
370
    15
100
AcDbLine
 10
78.9822922123
 20
163.3193340822
 30
0.0
 11
79.4443325174
 21
166.8193337246
 31
0.0
  0
LINE
  5
97
330
1F
100
AcDbEntity
  8
0
  6
Continuous
 62
     7
370
    15
100
AcDbLine
 10
79.2984985781
 20
163.3193340822
 30
0.0
 11
78.9822922123
 21
163.3193340822
 31
0.0
  0
SPLINE
  5
98
330
1F
100
AcDbEntity
  8
0
  6
Continuous
 62
     7
370
    15
100
AcDbSpline
210
0.0
220
0.0
230
1.0
 70
     8
 71
     3
 72
    19
 73
    15
 74
     0
 42
0.00000001
 43
0.00000001
 12
1.0
 22
0.0
 32
0.0
 13
1.0
 23
0.0
 33
0.0
 40
0.0
 40
0.0
 40
0.0
 40
0.0
 40
0.09781818961471
 40
0.1997260534018297
 40
0.3052763574779385
 40
0.4158114905382955
 40
0.4744722311435597
 40
0.5372738797761045
 40
0.6036574205596588
 40
0.6742988630901223
 40
0.7498344853162304
 40
0.8285984767571071
 40
0.9123777781577789
 40
1.0
 40
1.0
 40
1.0
 40
1.0
 10
72.29639538333579
 20
164.2952940215145
 30
0.0
 10
72.29757682834236
 20
164.3313386047244
 30
0.0
 10
72.29998911331104
 20
164.404934756722
 30
0.0
 10
72.31683250364937
 20
164.5163987846655
 30
0.0
 10
72.34389729843268
 20
164.6304498663922
 30
0.0
 10
72.37420754478514
 20
164.7272040599884
 30
0.0
 10
72.40623315483022
 20
164.8064655819479
 30
0.0
 10
72.4328856944178
 20
164.8703690725722
 30
0.0
 10
72.46605969045832
 20
164.9361301458069
 30
0.0
 10
72.50143307165335
 20
165.0060037817873
 30
0.0
 10
72.54218994056777
 20
165.0781892144758
 30
0.0
 10
72.58650558995612
 20
165.1538928839372
 30
0.0
 10
72.63560524086165
 20
165.2319108115991
 30
0.0
 10
72.6700254036077
 20
165.284855006846
 30
0.0
 10
72.68762134487424
 20
165.3119206240786
 30
0.0
  0
SPLINE
  5
99
330
1F
100
AcDbEntity
  8
0
  6
Continuous
 62
     7
370
    15
100
AcDbSpline
210
0.0
220
0.0
230
1.0
 70
     8
 71
     3
 72
    19
 73
    15
 74
     0
 42
0.00000001
 43
0.00000001
 12
1.0
 22
0.0
 32
0.0
 13
1.0
 23
0.0
 33
0.0
 40
0.0
 40
0.0
 40
0.0
 40
0.0
 40
0.0843347219926264
 40
0.1670523184160748
 40
0.2495660772409658
 40
0.3327404818018459
 40
0.4159148863627292
 40
0.4978280095399975
 40
0.5803725886080515
 40
0.6646001210564997
 40
0.7494666931126157
 40
0.8325102339401406
 40
0.9156392816681744
 40
1.0
 40
1.0
 40
1.0
 40
1.0
 10
73.35649153718195
 20
163.2295888933094
 30
0.0
 10
73.30939483652935
 20
163.2311170990531
 30
0.0
 10
73.21610451852187
 20
163.2341442070636
 30
0.0
 10
73.07887172428434
 20
163.2611101449379
 30
0.0
 10
72.94700870694298
 20
163.3048172477067
 30
0.0
 10
72.82143932603505
 20
163.3650315262496
 30
0.0
 10
72.70511871310713
 20
163.441089409202
 30
0.0
 10
72.60105307667457
 20
163.532651688334
 30
0.0
 10
72.50976130211598
 20
163.6377611534064
 30
0.0
 10
72.43378668118527
 20
163.7564015006783
 30
0.0
 10
72.37352794923804
 20
163.8838914581827
 30
0.0
 10
72.32833802412175
 20
164.0168286145722
 30
0.0
 10
72.30194178088664
 20
164.1547285962981
 30
0.0
 10
72.29825322404106
 20
164.2482097354846
 30
0.0
 10
72.29639538333579
 20
164.2952940215145
 30
0.0
  0
SPLINE
  5
9A
330
1F
100
AcDbEntity
  8
0
  6
Continuous
 62
     7
370
    15
100
AcDbSpline
210
0.0
220
0.0
230
1.0
 70
     8
 71
     3
 72
    19
 73
    15
 74
     0
 42
0.00000001
 43
0.00000001
 12
1.0
 22
0.0
 32
0.0
 13
1.0
 23
0.0
 33
0.0
 40
0.0
 40
0.0
 40
0.0
 40
0.0
 40
0.0859479431441268
 40
0.1691252118806892
 40
0.2503991071860499
 40
0.3322897361388307
 40
0.4133642879158797
 40
0.4941722833711866
 40
0.5760217353866351
 40
0.6607569692540067
 40
0.7457831259137419
 40
0.8300435929752225
 40
0.9140275458206819
 40
1.0
 40
1.0
 40
1.0
 40
1.0
 10
74.45024153718195
 20
164.3016041176683
 30
0.0
 10
74.44881843229774
 20
164.2526244137215
 30
0.0
 10
74.44601809867407
 20
164.1562439477694
 30
0.0
 10
74.41811430265342
 20
164.0158672413649
 30
0.0
 10
74.37475465789808
 20
163.8821347258318
 30
0.0
 10
74.31277712949493
 20
163.7571815544634
 30
0.0
 10
74.2357947465112
 20
163.6411789848853
 30
0.0
 10
74.14191715384342
 20
163.5383935194637
 30
0.0
 10
74.03447366550934
 20
163.4467234821462
 30
0.0
 10
73.91298686732937
 20
163.3700668629382
 30
0.0
 10
73.782243903213
 20
163.3074638119258
 30
0.0
 10
73.64489190579866
 20
163.2624985698429
 30
0.0
 10
73.50226475945948
 20
163.234815100452
 30
0.0
 10
73.40546015140491
 20
163.2313444977847
 30
0.0
 10
73.35649153718195
 20
163.2295888933094
 30
0.0
  0
SPLINE
  5
9B
330
1F
100
AcDbEntity
  8
0
  6
Continuous
 62
     7
370
    15
100
AcDbSpline
210
0.0
220
0.0
230
1.0
 70
     8
 71
     3
 72
    23
 73
    19
 74
     0
 42
0.00000001
 43
0.00000001
 12
1.0
 22
0.0
 32
0.0
 13
1.0
 23
0.0
 33
0.0
 40
0.0
 40
0.0
 40
0.0
 40
0.0
 40
0.0652308037420288
 40
0.1284048960032231
 40
0.1900670715964763
 40
0.2509433657682806
 40
0.3115458328521424
 40
0.3728628021568287
 40
0.435023673856236
 40
0.4990717247070438
 40
0.5630910750496584
 40
0.6255101063303722
 40
0.686680035929648
 40
0.7472825030135108
 40
0.8085634952159568
 40
0.8707421035159822
 40
0.9343409515059067
 40
0.9999999999999999
 40
0.9999999999999999
 40
0.9999999999999999
 40
0.9999999999999999
 10
73.41188015897681
 20
165.3385632522837
 30
0.0
 10
73.44745265531198
 20
165.3376071405879
 30
0.0
 10
73.51747605576793
 20
165.3357250631672
 30
0.0
 10
73.62028285794192
 20
165.3212412124753
 30
0.0
 10
73.71907179391509
 20
165.2984161005517
 30
0.0
 10
73.81343340617053
 20
165.2651438446035
 30
0.0
 10
73.90370638803007
 20
165.2226414902412
 30
0.0
 10
73.99040878413862
 20
165.1717026199608
 30
0.0
 10
74.07191079424483
 20
165.109696939604
 30
0.0
 10
74.14926197345673
 20
165.0404319838201
 30
0.0
 10
74.21948907084969
 20
164.963714999325
 30
0.0
 10
74.2816651264072
 20
164.8823136626189
 30
0.0
 10
74.33389191814132
 20
164.7963127816207
 30
0.0
 10
74.3762658397559
 20
164.7057559156874
 30
0.0
 10
74.40917071835379
 20
164.6107826561269
 30
0.0
 10
74.43315836339738
 20
164.5115145166384
 30
0.0
 10
74.44733795621724
 20
164.4078830451784
 30
0.0
 10
74.44926344693232
 20
164.3374048699121
 30
0.0
 10
74.45024153718195
 20
164.3016041176683
 30
0.0
  0
SPLINE
  5
9C
330
1F
100
AcDbEntity
  8
0
  6
Continuous
 62
     7
370
    15
100
AcDbSpline
210
0.0
220
0.0
230
1.0
 70
     8
 71
     3
 72
     9
 73
     5
 74
     0
 42
0.00000001
 43
0.00000001
 12
1.0
 22
0.0
 32
0.0
 13
1.0
 23
0.0
 33
0.0
 40
0.0
 40
0.0
 40
0.0
 40
0.0
 40
0.5126593363417794
 40
1.0
 40
1.0
 40
1.0
 40
1.0
 10
73.0494001910281
 20
165.3049094061299
 30
0.0
 10
73.11097046801143
 20
165.3147232667835
 30
0.0
 10
73.23107025478735
 20
165.3338663116047
 30
0.0
 10
73.35263615331174
 20
165.3370242570531
 30
0.0
 10
73.41188015897681
 20
165.3385632522837
 30
0.0
  0
LINE
  5
9D
330
1F
100
AcDbEntity
  8
0
  6
Continuous
 62
     7
370
    15
100
AcDbLine
 10
73.9741795731
 20
166.7190712615
 30
0.0
 11
73.0494004709
 21
165.3049063607
 31
0.0
  0
LINE
  5
9E
330
1F
100
AcDbEntity
  8
0
  6
Continuous
 62
     7
370
    15
100
AcDbLine
 10
73.7322927487
 20
166.9090759679
 30
0.0
 11
73.9741795731
 21
166.7190712615
 31
0.0
  0
LINE
  5
9F
330
1F
100
AcDbEntity
  8
0
  6
Continuous
 62
     7
370
    15
100
AcDbLine
 10
72.6876216975
 20
165.311917357
 30
0.0
 11
73.7322927487
 21
166.9090759679
 31
0.0
  0
LINE
  5
A0
330
1F
100
AcDbEntity
  8
0
  6
Continuous
 62
     7
370
    15
100
AcDbLine
 10
67.1361391467
 20
165.0693339034
 30
0.0
 11
67.4951137078
 21
166.8193337246
 31
0.0
  0
SPLINE
  5
A1
330
1F
100
AcDbEntity
  8
0
  6
Continuous
 62
     7
370
    15
100
AcDbSpline
210
0.0
220
0.0
230
1.0
 70
     8
 71
     3
 72
    15
 73
    11
 74
     0
 42
0.00000001
 43
0.00000001
 12
1.0
 22
0.0
 32
0.0
 13
1.0
 23
0.0
 33
0.0
 40
0.0
 40
0.0
 40
0.0
 40
0.0
 40
0.1022030370352194
 40
0.2110233423738751
 40
0.3250996615652102
 40
0.4465020971348891
 40
0.573787717648857
 40
0.7089007097660643
 40
0.850357871293399
 40
1.0
 40
1.0
 40
1.0
 40
1.0
 10
67.90737294743836
 20
165.2488196625401
 30
0.0
 10
67.88024401863194
 20
165.2482390713826
 30
0.0
 10
67.82422966330722
 20
165.2470402979392
 30
0.0
 10
67.73830683657798
 20
165.2382138011129
 30
0.0
 10
67.64801511360125
 20
165.2239745066848
 30
0.0
 10
67.55370061804504
 20
165.2043882592156
 30
0.0
 10
67.45508010994205
 20
165.1787571824569
 30
0.0
 10
67.35236170921476
 20
165.1480426818314
 30
0.0
 10
67.24532944261547
 20
165.1113206831178
 30
0.0
 10
67.17321171821673
 20
165.0835884693711
 30
0.0
 10
67.13613897307938
 20
165.069332483053
 30
0.0
  0
SPLINE
  5
A2
330
1F
100
AcDbEntity
  8
0
  6
Continuous
 62
     7
370
    15
100
AcDbSpline
210
0.0
220
0.0
230
1.0
 70
     8
 71
     3
 72
    23
 73
    19
 74
     0
 42
0.00000001
 43
0.00000001
 12
1.0
 22
0.0
 32
0.0
 13
1.0
 23
0.0
 33
0.0
 40
0.0
 40
0.0
 40
0.0
 40
0.0
 40
0.0653513820265954
 40
0.1279160318306171
 40
0.1883602055716976
 40
0.2472160772654547
 40
0.3056301291974088
 40
0.3637698398318226
 40
0.4226609139127806
 40
0.4826872940903918
 40
0.5433002212395576
 40
0.6041179553231018
 40
0.6649648912652838
 40
0.7274134941125662
 40
0.7914676251494234
 40
0.8580554427291014
 40
0.9270368146149481
 40
1.0
 40
1.0
 40
1.0
 40
1.0
 10
68.751523588464
 20
164.4761834445914
 30
0.0
 10
68.75086510900255
 20
164.5042591962126
 30
0.0
 10
68.74957622914815
 20
164.5592134852678
 30
0.0
 10
68.7390456588452
 20
164.639612691709
 30
0.0
 10
68.7207286864915
 20
164.7156857340106
 30
0.0
 10
68.69530480654454
 20
164.7877999679827
 30
0.0
 10
68.66302529881094
 20
164.8560234103306
 30
0.0
 10
68.62357898649212
 20
164.9204264705309
 30
0.0
 10
68.57622558854862
 20
164.9801603037543
 30
0.0
 10
68.52213369995995
 20
165.0352528573638
 30
0.0
 10
68.46287565901686
 20
165.086097732237
 30
0.0
 10
68.39743191641973
 20
165.1294418186889
 30
0.0
 10
68.32717198962459
 20
165.1659057363407
 30
0.0
 10
68.25294239015574
 20
165.1973737346835
 30
0.0
 10
68.17297749156832
 20
165.2199744800828
 30
0.0
 10
68.08886085918893
 20
165.236942365525
 30
0.0
 10
67.99968415124196
 20
165.2467577282032
 30
0.0
 10
67.93871346310802
 20
165.2481196165789
 30
0.0
 10
67.90737294743836
 20
165.2488196625401
 30
0.0
  0
SPLINE
  5
A3
330
1F
100
AcDbEntity
  8
0
  6
Continuous
 62
     7
370
    15
100
AcDbSpline
210
0.0
220
0.0
230
1.0
 70
     8
 71
     3
 72
    23
 73
    19
 74
     0
 42
0.00000001
 43
0.00000001
 12
1.0
 22
0.0
 32
0.0
 13
1.0
 23
0.0
 33
0.0
 40
0.0
 40
0.0
 40
0.0
 40
0.0
 40
0.0642072952829862
 40
0.1264246897797428
 40
0.1876802842649233
 40
0.2482164244552123
 40
0.308305060008613
 40
0.3696609913251439
 40
0.4316985517867803
 40
0.4959468922087624
 40
0.5597580239721217
 40
0.6222954078261574
 40
0.6839106352841761
 40
0.7450924080566296
 40
0.8067402253892908
 40
0.8690866181212016
 40
0.9332900029747996
 40
1.0
 40
1.0
 40
1.0
 40
1.0
 10
67.86320227436143
 20
163.5885632522837
 30
0.0
 10
67.89316071877873
 20
163.5893840301888
 30
0.0
 10
67.9521491409673
 20
163.5910001485999
 30
0.0
 10
68.0389605276603
 20
163.6034391606898
 30
0.0
 10
68.12277340186245
 20
163.6225967319974
 30
0.0
 10
68.20276075862141
 20
163.6512665869811
 30
0.0
 10
68.28032229821045
 20
163.6861113054069
 30
0.0
 10
68.35349606863355
 20
163.7308263812228
 30
0.0
 10
68.4243989457742
 20
163.7822863996678
 30
0.0
 10
68.49082707929527
 20
163.8412430297112
 30
0.0
 10
68.5516665285548
 20
163.9062127243305
 30
0.0
 10
68.60542264968875
 20
163.9756901177554
 30
0.0
 10
68.6501995631149
 20
164.0498069642983
 30
0.0
 10
68.68793367198457
 20
164.1272801171492
 30
0.0
 10
68.71658697080723
 20
164.2089586743276
 30
0.0
 10
68.73702795203002
 20
164.2944598495
 30
0.0
 10
68.74903101084851
 20
164.3839948297065
 30
0.0
 10
68.75068219082048
 20
164.4450641394827
 30
0.0
 10
68.751523588464
 20
164.4761834445914
 30
0.0
  0
SPLINE
  5
A4
330
1F
100
AcDbEntity
  8
0
  6
Continuous
 62
     7
370
    15
100
AcDbSpline
210
0.0
220
0.0
230
1.0
 70
     8
 71
     3
 72
    19
 73
    15
 74
     0
 42
0.00000001
 43
0.00000001
 12
1.0
 22
0.0
 32
0.0
 13
1.0
 23
0.0
 33
0.0
 40
0.0
 40
0.0
 40
0.0
 40
0.0
 40
0.0946872518675525
 40
0.1819941557072742
 40
0.264376948610504
 40
0.3421798619477694
 40
0.4186176108621417
 40
0.4965090753719029
 40
0.5773690916117338
 40
0.6615105924541946
 40
0.7467325508291941
 40
0.8312579843277429
 40
0.915205616213654
 40
1.0
 40
1.0
 40
1.0
 40
1.0
 10
67.0912671782076
 20
164.2167683804888
 30
0.0
 10
67.09899573559775
 20
164.1833919280402
 30
0.0
 10
67.11385045203863
 20
164.1192405331682
 30
0.0
 10
67.1464562007906
 20
164.0291091918352
 30
0.0
 10
67.18632207626334
 20
163.9487899681592
 30
0.0
 10
67.23372642468058
 20
163.8772203848856
 30
0.0
 10
67.29027645516683
 20
163.8148113876133
 30
0.0
 10
67.35480588410748
 20
163.7591943256755
 30
0.0
 10
67.42715360730669
 20
163.709019196348
 30
0.0
 10
67.5075468368266
 20
163.6671964291507
 30
0.0
 10
67.59235991614696
 20
163.6315276757507
 30
0.0
 10
67.68112712615655
 20
163.607775980799
 30
0.0
 10
67.77143147262765
 20
163.5910750879562
 30
0.0
 10
67.83250984282414
 20
163.5894033271545
 30
0.0
 10
67.86320227436143
 20
163.5885632522837
 30
0.0
  0
LINE
  5
A5
330
1F
100
AcDbEntity
  8
0
  6
Continuous
 62
     7
370
    15
100
AcDbLine
 10
66.7771645856
 20
164.2167714163
 30
0.0
 11
67.0912670937
 21
164.2167714163
 31
0.0
  0
SPLINE
  5
A6
330
1F
100
AcDbEntity
  8
0
  6
Continuous
 62
     7
370
    15
100
AcDbSpline
210
0.0
220
0.0
230
1.0
 70
     8
 71
     3
 72
    23
 73
    19
 74
     0
 42
0.00000001
 43
0.00000001
 12
1.0
 22
0.0
 32
0.0
 13
1.0
 23
0.0
 33
0.0
 40
0.0
 40
0.0
 40
0.0
 40
0.0
 40
0.0654211437588926
 40
0.1287083718818823
 40
0.1902361418635396
 40
0.2507244020335411
 40
0.3106371794134433
 40
0.3707664082897268
 40
0.4316147444123562
 40
0.4935229735663555
 40
0.5558834553775379
 40
0.6173423673185103
 40
0.678668039097278
 40
0.7407113595451515
 40
0.802985362512749
 40
0.8668025802655211
 40
0.9323471713458898
 40
1.0
 40
1.0
 40
1.0
 40
1.0
 10
67.84497310769477
 20
163.2295888933094
 30
0.0
 10
67.81009892699255
 20
163.2302797312935
 30
0.0
 10
67.74148809628868
 20
163.2316388734159
 30
0.0
 10
67.64096752921711
 20
163.24585735867
 30
0.0
 10
67.54425292352364
 20
163.2662212750625
 30
0.0
 10
67.45212282236623
 20
163.2968575449109
 30
0.0
 10
67.36375155866098
 20
163.335244839601
 30
0.0
 10
67.28032884087213
 20
163.3837610110965
 30
0.0
 10
67.19972306482427
 20
163.4387401148436
 30
0.0
 10
67.12521102807476
 20
163.5036204678083
 30
0.0
 10
67.05605491460511
 20
163.5745361498409
 30
0.0
 10
66.99414840573478
 20
163.6514937910066
 30
0.0
 10
66.93901482899813
 20
163.7332232330927
 30
0.0
 10
66.89153708200928
 20
163.8201213871684
 30
0.0
 10
66.85103906069288
 20
163.911959918106
 30
0.0
 10
66.81922407241618
 20
164.009082918998
 30
0.0
 10
66.79354571747307
 20
164.1109829229374
 30
0.0
 10
66.7826822969967
 20
164.1811364333479
 30
0.0
 10
66.77716461410503
 20
164.2167683804888
 30
0.0
  0
SPLINE
  5
A7
330
1F
100
AcDbEntity
  8
0
  6
Continuous
 62
     7
370
    15
100
AcDbSpline
210
0.0
220
0.0
230
1.0
 70
     8
 71
     3
 72
    31
 73
    27
 74
     0
 42
0.00000001
 43
0.00000001
 12
1.0
 22
0.0
 32
0.0
 13
1.0
 23
0.0
 33
0.0
 40
0.0
 40
0.0
 40
0.0
 40
0.0
 40
0.0440144705761409
 40
0.0874341236677078
 40
0.1301183986579017
 40
0.1725536945581809
 40
0.2145547559681395
 40
0.2562980920971334
 40
0.2984382251332485
 40
0.3408490025880964
 40
0.3827151889670306
 40
0.4239240454075328
 40
0.4642462432504167
 40
0.5040736714617985
 40
0.5438619058684933
 40
0.5835667249796551
 40
0.623094318852335
 40
0.6632290607685868
 40
0.7035512586114697
 40
0.7439378946861852
 40
0.7845412548000934
 40
0.8257501112405977
 40
0.8677573633885064
 40
0.9107451640323099
 40
0.9549144468914781
 40
0.9999999999999999
 40
0.9999999999999999
 40
0.9999999999999999
 40
0.9999999999999999
 10
69.06562615256657
 20
164.4628621304888
 30
0.0
 10
69.06496107729319
 20
164.4343399101369
 30
0.0
 10
69.06363991466328
 20
164.377680922561
 30
0.0
 10
69.0569213270155
 20
164.2935367218758
 30
0.0
 10
69.04398561095132
 20
164.2111738887934
 30
0.0
 10
69.02661788684728
 20
164.1305814969547
 30
0.0
 10
69.00407546888177
 20
164.0519121247756
 30
0.0
 10
68.97678641497946
 20
163.9749405968488
 30
0.0
 10
68.94339038746958
 20
163.9001459901057
 30
0.0
 10
68.90675901221066
 20
163.8268205950819
 30
0.0
 10
68.86551253417535
 20
163.7566220878872
 30
0.0
 10
68.81973402683639
 20
163.6909731013445
 30
0.0
 10
68.77136853561406
 20
163.6288888198645
 30
0.0
 10
68.71932715015578
 20
163.5710350868553
 30
0.0
 10
68.66312615504317
 20
163.5177920689624
 30
0.0
 10
68.60344618818148
 20
163.4688437874564
 30
0.0
 10
68.54076346915235
 20
163.4233624571533
 30
0.0
 10
68.47410822683139
 20
163.3831942619778
 30
0.0
 10
68.40496574386782
 20
163.346231305825
 30
0.0
 10
68.33233752672734
 20
163.3159077684897
 30
0.0
 10
68.25787682626984
 20
163.2887972404047
 30
0.0
 10
68.18051195067501
 20
163.2671877127932
 30
0.0
 10
68.10041813805924
 20
163.2502551582738
 30
0.0
 10
68.01746336257715
 20
163.2387545576713
 30
0.0
 10
67.9320826925534
 20
163.2303781202011
 30
0.0
 10
67.87420767997352
 20
163.2298537632505
 30
0.0
 10
67.84497310769477
 20
163.2295888933094
 30
0.0
  0
SPLINE
  5
A8
330
1F
100
AcDbEntity
  8
0
  6
Continuous
 62
     7
370
    15
100
AcDbSpline
210
0.0
220
0.0
230
1.0
 70
     8
 71
     3
 72
    23
 73
    19
 74
     0
 42
0.00000001
 43
0.00000001
 12
1.0
 22
0.0
 32
0.0
 13
1.0
 23
0.0
 33
0.0
 40
0.0
 40
0.0
 40
0.0
 40
0.0
 40
0.065807645810695
 40
0.129394273668055
 40
0.1908940606321893
 40
0.2512810689298349
 40
0.3108149644652729
 40
0.3703709874482443
 40
0.4307682625897291
 40
0.4928812506175015
 40
0.5551039481552499
 40
0.6160670509938433
 40
0.6772560331746539
 40
0.7382598051991157
 40
0.8007621343763004
 40
0.8647775815744859
 40
0.9310452949994087
 40
1.0
 40
1.0
 40
1.0
 40
1.0
 10
67.96416381282297
 20
165.6077940215145
 30
0.0
 10
68.00324755253517
 20
165.6069480858199
 30
0.0
 10
68.08009594986031
 20
165.6052847648876
 30
0.0
 10
68.19253489685394
 20
165.5893129154433
 30
0.0
 10
68.29986779007206
 20
165.5641730008131
 30
0.0
 10
68.40187016024841
 20
165.5290524790764
 30
0.0
 10
68.49873071088568
 20
165.484142745882
 30
0.0
 10
68.5895582723662
 20
165.4280428055243
 30
0.0
 10
68.67571618535302
 20
165.3625094743746
 30
0.0
 10
68.75565877930721
 20
165.2871644624149
 30
0.0
 10
68.82818308747262
 20
165.2042428456628
 30
0.0
 10
68.89194907713961
 20
165.1150849746193
 30
0.0
 10
68.94611166744389
 20
165.0205573124848
 30
0.0
 10
68.98967242232031
 20
164.9197567037465
 30
0.0
 10
69.02445675659624
 20
164.8137975503361
 30
0.0
 10
69.04760875144007
 20
164.7015649677839
 30
0.0
 10
69.06302546040135
 20
164.5841168477705
 30
0.0
 10
69.06474784672092
 20
164.5038122776934
 30
0.0
 10
69.06562615256657
 20
164.4628621304888
 30
0.0
  0
SPLINE
  5
A9
330
1F
100
AcDbEntity
  8
0
  6
Continuous
 62
     7
370
    15
100
AcDbSpline
210
0.0
220
0.0
230
1.0
 70
     8
 71
     3
 72
    11
 73
     7
 74
     0
 42
0.00000001
 43
0.00000001
 12
1.0
 22
0.0
 32
0.0
 13
1.0
 23
0.0
 33
0.0
 40
0.0
 40
0.0
 40
0.0
 40
0.0
 40
0.2750683690187484
 40
0.5329014600899362
 40
0.7739734595924417
 40
1.0
 40
1.0
 40
1.0
 40
1.0
 10
67.55190419743835
 20
165.5397852074119
 30
0.0
 10
67.58896007181204
 20
165.5500154792222
 30
0.0
 10
67.6607499676444
 20
165.5698350128322
 30
0.0
 10
67.76670982860811
 20
165.5918407832616
 30
0.0
 10
67.86730203207911
 20
165.6051062273191
 30
0.0
 10
67.93257740248961
 20
165.6069175378313
 30
0.0
 10
67.96416381282297
 20
165.6077940215145
 30
0.0
  0
LINE
  5
AA
330
1F
100
AcDbEntity
  8
0
  6
Continuous
 62
     7
370
    15
100
AcDbLine
 10
67.7405060303
 20
166.4603573008
 30
0.0
 11
67.5519038958
 21
165.539785914
 31
0.0
  0
LINE
  5
AB
330
1F
100
AcDbEntity
  8
0
  6
Continuous
 62
     7
370
    15
100
AcDbLine
 10
68.9310110209
 20
166.4603573008
 30
0.0
 11
67.7405060303
 21
166.4603573008
 31
0.0
  0
LINE
  5
AC
330
1F
100
AcDbEntity
  8
0
  6
Continuous
 62
     7
370
    15
100
AcDbLine
 10
68.9310110209
 20
166.8193337246
 30
0.0
 11
68.9310110209
 21
166.4603573008
 31
0.0
  0
LINE
  5
AD
330
1F
100
AcDbEntity
  8
0
  6
Continuous
 62
     7
370
    15
100
AcDbLine
 10
67.4951137078
 20
166.8193337246
 30
0.0
 11
68.9310110209
 21
166.8193337246
 31
0.0
  0
LINE
  5
AE
330
1F
100
AcDbEntity
  8
0
  6
Continuous
 62
     7
370
    15
100
AcDbLine
 10
170.2543874306
 20
123.8445152267
 30
0.0
 11
170.2543874306
 21
144.367076151
 31
0.0
  0
LINE
  5
AF
330
1F
100
AcDbEntity
  8
0
  6
Continuous
 62
     7
370
    15
100
AcDbLine
 10
170.2543874306
 20
144.367076151
 30
0.0
 11
169.3543870968
 21
144.367076151
 31
0.0
  0
LINE
  5
B0
330
1F
100
AcDbEntity
  8
0
  6
Continuous
 62
     7
370
    15
100
AcDbLine
 10
169.3543870968
 20
144.367076151
 30
0.0
 11
169.3543870968
 21
123.8445152267
 31
0.0
  0
ARC
  5
B1
330
1F
100
AcDbEntity
  8
0
  6
Continuous
 62
     7
370
    15
100
AcDbCircle
 10
169.8043902439
 20
119.3670731707
 30
0.0
 40
4.500000000000002
100
AcDbArc
 50
84.2608295227
 51
95.7391704773
  0
LINE
  5
B2
330
1F
100
AcDbEntity
  8
0
  6
Continuous
 62
     7
370
    15
100
AcDbLine
 10
95.2543919009
 20
123.8445152267
 30
0.0
 11
95.2543919009
 21
144.367076151
 31
0.0
  0
LINE
  5
B3
330
1F
100
AcDbEntity
  8
0
  6
Continuous
 62
     7
370
    15
100
AcDbLine
 10
95.2543919009
 20
144.367076151
 30
0.0
 11
94.3543915671
 21
144.367076151
 31
0.0
  0
LINE
  5
B4
330
1F
100
AcDbEntity
  8
0
  6
Continuous
 62
     7
370
    15
100
AcDbLine
 10
94.3543915671
 20
144.367076151
 30
0.0
 11
94.3543915671
 21
123.8445152267
 31
0.0
  0
ARC
  5
B5
330
1F
100
AcDbEntity
  8
0
  6
Continuous
 62
     7
370
    15
100
AcDbCircle
 10
94.8043902439
 20
119.3670731707
 30
0.0
 40
4.499999999999989
100
AcDbArc
 50
84.2608295227
 51
95.7391704773
  0
LINE
  5
B6
330
1F
100
AcDbEntity
  8
0
  6
Continuous
 62
     7
370
    15
100
AcDbLine
 10
207.3043962044
 20
69.3670731707
 30
0.0
 11
207.3043962044
 21
169.3670746608
 31
0.0
  0
LINE
  5
B7
330
1F
100
AcDbEntity
  8
0
  6
Continuous
 62
     7
370
    15
100
AcDbLine
 10
57.3043902439
 20
69.3670731707
 30
0.0
 11
207.3043962044
 21
69.3670731707
 31
0.0
  0
LINE
  5
B8
330
1F
100
AcDbEntity
  8
0
  6
Continuous
 62
     7
370
    15
100
AcDbLine
 10
57.3043902439
 20
169.3670746608
 30
0.0
 11
57.3043902439
 21
69.3670731707
 31
0.0
  0
LINE
  5
B9
330
1F
100
AcDbEntity
  8
0
  6
Continuous
 62
     7
370
    15
100
AcDbLine
 10
207.3043962044
 20
169.3670746608
 30
0.0
 11
57.3043902439
 21
169.3670746608
 31
0.0
  0
SPLINE
  5
BA
330
1F
100
AcDbEntity
  8
0
  6
Continuous
 62
     7
370
    15
100
AcDbSpline
210
0.0
220
0.0
230
1.0
 70
     8
 71
     3
 72
    19
 73
    15
 74
     0
 42
0.00000001
 43
0.00000001
 12
1.0
 22
0.0
 32
0.0
 13
1.0
 23
0.0
 33
0.0
 40
0.0
 40
0.0
 40
0.0
 40
0.0
 40
0.0894097111101353
 40
0.1763057644831061
 40
0.2626259021834186
 40
0.3494457264756546
 40
0.4354982637429535
 40
0.5189281301037137
 40
0.6013546565787402
 40
0.684256421718415
 40
0.7658067397968369
 40
0.8448768657103876
 40
0.9222797948488702
 40
1.0
 40
1.0
 40
1.0
 40
1.0
 10
70.62982887692554
 20
166.9090760727966
 30
0.0
 10
70.67433269191659
 20
166.9076297296866
 30
0.0
 10
70.76208914506903
 20
166.9047777058456
 30
0.0
 10
70.89108377264773
 20
166.8809908277836
 30
0.0
 10
71.01450865008366
 20
166.8412613080375
 30
0.0
 10
71.13193814901412
 20
166.7873640847083
 30
0.0
 10
71.24127001648402
 20
166.7209771439012
 30
0.0
 10
71.33787232573775
 20
166.6405762698299
 30
0.0
 10
71.42320490770315
 20
166.5504347191091
 30
0.0
 10
71.49378930196154
 20
166.4495151157955
 30
0.0
 10
71.55195219138007
 20
166.3428309221601
 30
0.0
 10
71.59245309249673
 20
166.2312084012671
 30
0.0
 10
71.61840506646912
 20
166.1170593424057
 30
0.0
 10
71.62167843063962
 20
166.0398213384992
 30
0.0
 10
71.62331846025886
 20
166.0011233484376
 30
0.0
  0
SPLINE
  5
BB
330
1F
100
AcDbEntity
  8
0
  6
Continuous
 62
     7
370
    15
100
AcDbSpline
210
0.0
220
0.0
230
1.0
 70
     8
 71
     3
 72
    19
 73
    15
 74
     0
 42
0.00000001
 43
0.00000001
 12
1.0
 22
0.0
 32
0.0
 13
1.0
 23
0.0
 33
0.0
 40
0.0
 40
0.0
 40
0.0
 40
0.0
 40
0.0740584262733879
 40
0.148870352316879
 40
0.226667668369177
 40
0.3077347594511167
 40
0.391157203805981
 40
0.4739293555425553
 40
0.5579277515150588
 40
0.6449892900513606
 40
0.7333640555176179
 40
0.8210920421841608
 40
0.9092872149973381
 40
1.0
 40
1.0
 40
1.0
 40
1.0
 10
69.6040876910281
 20
166.0109390535658
 30
0.0
 10
69.60572311512588
 20
166.0482366119474
 30
0.0
 10
69.60901060277419
 20
166.1232112088466
 30
0.0
 10
69.63559392335948
 20
166.2348173321672
 30
0.0
 10
69.67891398987256
 20
166.3444338971914
 30
0.0
 10
69.73783498688576
 20
166.4515296100119
 30
0.0
 10
69.8112222030321
 20
166.5524798246741
 30
0.0
 10
69.89926874886301
 20
166.6430207709591
 30
0.0
 10
69.99987204568374
 20
166.7223322534443
 30
0.0
 10
70.11252991268721
 20
166.7889084261926
 30
0.0
 10
70.23376614842088
 20
166.8430920849801
 30
0.0
 10
70.36168187230429
 20
166.8804705077988
 30
0.0
 10
70.49404836546266
 20
166.9049066245063
 30
0.0
 10
70.58414608481122
 20
166.9076732791451
 30
0.0
 10
70.62982887692554
 20
166.9090760727966
 30
0.0
  0
SPLINE
  5
BC
330
1F
100
AcDbEntity
  8
0
  6
Continuous
 62
     7
370
    15
100
AcDbSpline
210
0.0
220
0.0
230
1.0
 70
     8
 71
     3
 72
    15
 73
    11
 74
     0
 42
0.00000001
 43
0.00000001
 12
1.0
 22
0.0
 32
0.0
 13
1.0
 23
0.0
 33
0.0
 40
0.0
 40
0.0
 40
0.0
 40
0.0
 40
0.1458600603916702
 40
0.2824259030758181
 40
0.4108504003575529
 40
0.5350294213479305
 40
0.6547010781259398
 40
0.7701334325965128
 40
0.8845558441988663
 40
1.0
 40
1.0
 40
1.0
 40
1.0
 10
70.11520547948965
 20
165.2691521945914
 30
0.0
 10
70.07461410481721
 20
165.2912869632112
 30
0.0
 10
69.99601784194604
 20
165.3341460707698
 30
0.0
 10
69.89194840081359
 20
165.4128928768628
 30
0.0
 10
69.80255777735933
 20
165.4981806916781
 30
0.0
 10
69.73030305974403
 20
165.5918104865015
 30
0.0
 10
69.67343083167188
 20
165.6908573608055
 30
0.0
 10
69.63441222712514
 20
165.7947016131849
 30
0.0
 10
69.60801574312104
 20
165.9014177266902
 30
0.0
 10
69.60540091597983
 20
165.974323923268
 30
0.0
 10
69.6040876910281
 20
166.0109390535658
 30
0.0
  0
SPLINE
  5
BD
330
1F
100
AcDbEntity
  8
0
  6
Continuous
 62
     7
370
    15
100
AcDbSpline
210
0.0
220
0.0
230
1.0
 70
     8
 71
     3
 72
    23
 73
    19
 74
     0
 42
0.00000001
 43
0.00000001
 12
1.0
 22
0.0
 32
0.0
 13
1.0
 23
0.0
 33
0.0
 40
0.0
 40
0.0
 40
0.0
 40
0.0
 40
0.0588535860286723
 40
0.1163154589633601
 40
0.1726748434114593
 40
0.2287803868809075
 40
0.2845803591252787
 40
0.340256506384545
 40
0.3966298050124629
 40
0.4535072628751954
 40
0.5123181897799957
 40
0.5726484440568376
 40
0.6360219358218059
 40
0.7023629463891965
 40
0.7714830560569307
 40
0.8441844774899022
 40
0.9200697939721548
 40
1.0
 40
1.0
 40
1.0
 40
1.0
 10
69.42460051154093
 20
164.3100175792068
 30
0.0
 10
69.42517839256969
 20
164.3345767712436
 30
0.0
 10
69.4263204894515
 20
164.3831144031245
 30
0.0
 10
69.43422533768245
 20
164.4548237314098
 30
0.0
 10
69.44693379898578
 20
164.5246198661842
 30
0.0
 10
69.46419325577929
 20
164.5927606098616
 30
0.0
 10
69.4875842822476
 20
164.6587498823822
 30
0.0
 10
69.51582641539208
 20
164.7229003560616
 30
0.0
 10
69.54875836786914
 20
164.7852844550057
 30
0.0
 10
69.58683953292115
 20
164.8462433360746
 30
0.0
 10
69.6311415569224
 20
164.904922848304
 30
0.0
 10
69.68130520670928
 20
164.9623188429138
 30
0.0
 10
69.7383330753744
 20
165.017540710051
 30
0.0
 10
69.80159073427495
 20
165.0712631349677
 30
0.0
 10
69.87035527374046
 20
165.1244391087874
 30
0.0
 10
69.94641280422567
 20
165.1741948373986
 30
0.0
 10
70.02774707201644
 20
165.2240528021616
 30
0.0
 10
70.08555247762379
 20
165.2538611275973
 30
0.0
 10
70.11520547948963
 20
165.2691521945914
 30
0.0
  0
SPLINE
  5
BE
330
1F
100
AcDbEntity
  8
0
  6
Continuous
 62
     7
370
    15
100
AcDbSpline
210
0.0
220
0.0
230
1.0
 70
     8
 71
     3
 72
    23
 73
    19
 74
     0
 42
0.00000001
 43
0.00000001
 12
1.0
 22
0.0
 32
0.0
 13
1.0
 23
0.0
 33
0.0
 40
0.0
 40
0.0
 40
0.0
 40
0.0
 40
0.0785564333527024
 40
0.1528628401420931
 40
0.223559693438287
 40
0.2903749439782093
 40
0.3554030728222055
 40
0.4182911570440924
 40
0.4803885637756488
 40
0.5430726152062787
 40
0.6049239444620952
 40
0.6643983091133004
 40
0.7219425547367041
 40
0.7783748910546767
 40
0.8338299406509421
 40
0.8888612363188866
 40
0.9440889395778875
 40
1.0
 40
1.0
 40
1.0
 40
1.0
 10
70.60879522307938
 20
163.2295888933094
 30
0.0
 10
70.5617818344633
 20
163.230741371264
 30
0.0
 10
70.47029855547724
 20
163.2329839763038
 30
0.0
 10
70.33714067793646
 20
163.2481784078812
 30
0.0
 10
70.21301760809123
 20
163.2748062745595
 30
0.0
 10
70.09720763979253
 20
163.3112508838815
 30
0.0
 10
69.99040894645313
 20
163.3586611121977
 30
0.0
 10
69.89292584528029
 20
163.4176695209452
 30
0.0
 10
69.80335187302647
 20
163.4859009631062
 30
0.0
 10
69.72440539946021
 20
163.5653150413074
 30
0.0
 10
69.65431695560387
 20
163.6503729136299
 30
0.0
 10
69.5927489025364
 20
163.7381245233907
 30
0.0
 10
69.54157482400865
 20
163.8285778809297
 30
0.0
 10
69.49824772866317
 20
163.9203842481157
 30
0.0
 10
69.46507970597936
 20
164.0148304022467
 30
0.0
 10
69.44210749565089
 20
164.1114304153802
 30
0.0
 10
69.42751818160752
 20
164.2100155582324
 30
0.0
 10
69.42557704670497
 20
164.2765472115063
 30
0.0
 10
69.42460051154093
 20
164.3100175792068
 30
0.0
  0
SPLINE
  5
BF
330
1F
100
AcDbEntity
  8
0
  6
Continuous
 62
     7
370
    15
100
AcDbSpline
210
0.0
220
0.0
230
1.0
 70
     8
 71
     3
 72
    15
 73
    11
 74
     0
 42
0.00000001
 43
0.00000001
 12
1.0
 22
0.0
 32
0.0
 13
1.0
 23
0.0
 33
0.0
 40
0.0
 40
0.0
 40
0.0
 40
0.0
 40
0.1192834503733733
 40
0.2370928820686265
 40
0.3547960442151281
 40
0.4745763009408482
 40
0.5974600658149757
 40
0.7249261546156118
 40
0.8588831991927632
 40
1.0
 40
1.0
 40
1.0
 40
1.0
 10
71.53778160128452
 20
163.6138036368991
 30
0.0
 10
71.5099451269802
 20
163.5832098627083
 30
0.0
 10
71.45461616140469
 20
163.522400370079
 30
0.0
 10
71.35983323378852
 20
163.4434495600881
 30
0.0
 10
71.25581134997259
 20
163.3771001659949
 30
0.0
 10
71.14295301733388
 20
163.3230282714461
 30
0.0
 10
71.02155991592812
 20
163.2809424125212
 30
0.0
 10
70.8916579113178
 20
163.2506998946078
 30
0.0
 10
70.75299375839933
 20
163.2333774653912
 30
0.0
 10
70.65768828728359
 20
163.2308734756918
 30
0.0
 10
70.60879522307938
 20
163.2295888933094
 30
0.0
  0
SPLINE
  5
C0
330
1F
100
AcDbEntity
  8
0
  6
Continuous
 62
     7
370
    15
100
AcDbSpline
210
0.0
220
0.0
230
1.0
 70
     8
 71
     3
 72
    15
 73
    11
 74
     0
 42
0.00000001
 43
0.00000001
 12
1.0
 22
0.0
 32
0.0
 13
1.0
 23
0.0
 33
0.0
 40
0.0
 40
0.0
 40
0.0
 40
0.0
 40
0.1281581855276708
 40
0.2536731361531626
 40
0.3773253059734815
 40
0.4993845547645988
 40
0.6229183680423386
 40
0.7458393931045704
 40
0.8713952850140267
 40
1.0
 40
1.0
 40
1.0
 40
1.0
 10
71.80280563974604
 20
164.3387635727966
 30
0.0
 10
71.80203421920653
 20
164.3050658401707
 30
0.0
 10
71.80050728850954
 20
164.2383653833779
 30
0.0
 10
71.78720730448512
 20
164.1399192718804
 30
0.0
 10
71.7672943260009
 20
164.0443074899519
 30
0.0
 10
71.73821481372215
 20
163.9515509991368
 30
0.0
 10
71.7005014228725
 20
163.8621616257948
 30
0.0
 10
71.65402458689275
 20
163.7760628523517
 30
0.0
 10
71.601413381746
 20
163.6918435431779
 30
0.0
 10
71.5591611425399
 20
163.640024141555
 30
0.0
 10
71.53778160128452
 20
163.6138036368991
 30
0.0
  0
SPLINE
  5
C1
330
1F
100
AcDbEntity
  8
0
  6
Continuous
 62
     7
370
    15
100
AcDbSpline
210
0.0
220
0.0
230
1.0
 70
     8
 71
     3
 72
    23
 73
    19
 74
     0
 42
0.00000001
 43
0.00000001
 12
1.0
 22
0.0
 32
0.0
 13
1.0
 23
0.0
 33
0.0
 40
0.0
 40
0.0
 40
0.0
 40
0.0
 40
0.0795248295850139
 40
0.1550999763495369
 40
0.227219820073268
 40
0.2959105041914704
 40
0.3620558809471775
 40
0.4255201169126333
 40
0.4858127192253037
 40
0.5444947060018129
 40
0.6014596357222257
 40
0.6578405937966461
 40
0.7139744721931416
 40
0.7694679515974508
 40
0.8261299671813241
 40
0.8828853593090698
 40
0.9407008816661971
 40
1.0
 40
1.0
 40
1.0
 40
1.0
 10
71.12622310769476
 20
165.2691521945914
 30
0.0
 10
71.15487165484468
 20
165.2542142386328
 30
0.0
 10
71.21074588945277
 20
165.225080235731
 30
0.0
 10
71.29032309766296
 20
165.1781694080426
 30
0.0
 10
71.3630480989137
 20
165.1287284431761
 30
0.0
 10
71.43093866070157
 20
165.0790925837636
 30
0.0
 10
71.49280201150829
 20
165.0273609323647
 30
0.0
 10
71.54794642436761
 20
164.9733277761567
 30
0.0
 10
71.59773404428549
 20
164.9183418308622
 30
0.0
 10
71.64116082827485
 20
164.8614719906975
 30
0.0
 10
71.67935766499396
 20
164.8028693416033
 30
0.0
 10
71.71236980019754
 20
164.742380068561
 30
0.0
 10
71.74058700303021
 20
164.6801367347904
 30
0.0
 10
71.76294994175724
 20
164.6154599048548
 30
0.0
 10
71.7813717334481
 20
164.5492996431967
 30
0.0
 10
71.7940473384899
 20
164.4808016613444
 30
0.0
 10
71.80086425630745
 20
164.4104173204489
 30
0.0
 10
71.80215306974871
 20
164.3628490187651
 30
0.0
 10
71.80280563974604
 20
164.3387635727966
 30
0.0
  0
SPLINE
  5
C2
330
1F
100
AcDbEntity
  8
0
  6
Continuous
 62
     7
370
    15
100
AcDbSpline
210
0.0
220
0.0
230
1.0
 70
     8
 71
     3
 72
    15
 73
    11
 74
     0
 42
0.00000001
 43
0.00000001
 12
1.0
 22
0.0
 32
0.0
 13
1.0
 23
0.0
 33
0.0
 40
0.0
 40
0.0
 40
0.0
 40
0.0
 40
0.1219040408698776
 40
0.2394126076020073
 40
0.3554101042801773
 40
0.4720907288033006
 40
0.5928589821563587
 40
0.7187034677136859
 40
0.8548923829515236
 40
1.0
 40
1.0
 40
1.0
 40
1.0
 10
71.62331846025886
 20
166.0011233484376
 30
0.0
 10
71.62188389962637
 20
165.9631466845808
 30
0.0
 10
71.61906650408034
 20
165.8885626752477
 30
0.0
 10
71.59536656455307
 20
165.7798361547697
 30
0.0
 10
71.55545325095211
 20
165.6780141158385
 30
0.0
 10
71.50095908796897
 20
165.5819411636685
 30
0.0
 10
71.429933600483
 20
165.4933596660588
 30
0.0
 10
71.34332486743625
 20
165.4111431961674
 30
0.0
 10
71.24182338918087
 20
165.3346163678347
 30
0.0
 10
71.16556250296742
 20
165.2914300035579
 30
0.0
 10
71.12622310769476
 20
165.2691521945914
 30
0.0
  0
SPLINE
  5
C3
330
1F
100
AcDbEntity
  8
0
  6
Continuous
 62
     7
370
    15
100
AcDbSpline
210
0.0
220
0.0
230
1.0
 70
     8
 71
     3
 72
    31
 73
    27
 74
     0
 42
0.00000001
 43
0.00000001
 12
1.0
 22
0.0
 32
0.0
 13
1.0
 23
0.0
 33
0.0
 40
0.0
 40
0.0
 40
0.0
 40
0.0
 40
0.065063289617282
 40
0.126773166466524
 40
0.1855157632260794
 40
0.2407646791677157
 40
0.2929797960236001
 40
0.3422503727797662
 40
0.3889192861856624
 40
0.4327756640583111
 40
0.4746284326311184
 40
0.514774690637954
 40
0.5536058934984445
 40
0.5914264064311715
 40
0.6280281199460679
 40
0.6638036341103192
 40
0.6989843361316657
 40
0.7335914893067068
 40
0.7676284691511411
 40
0.8012083477865934
 40
0.8342638397266224
 40
0.8669806947287768
 40
0.8997197415181606
 40
0.932701912498539
 40
0.96617588343275
 40
1.0
 40
1.0
 40
1.0
 40
1.0
 10
77.18742102436144
 20
165.0679302394632
 30
0.0
 10
77.18676943981751
 20
165.0144063315223
 30
0.0
 10
77.18549985390602
 20
164.9101171796635
 30
0.0
 10
77.17892114713828
 20
164.7575862043437
 30
0.0
 10
77.16596251595958
 20
164.6135881610452
 30
0.0
 10
77.14975252765079
 20
164.4777776985864
 30
0.0
 10
77.12730156467737
 20
164.3507200797535
 30
0.0
 10
77.09969639842608
 20
164.2319756312855
 30
0.0
 10
77.06904607560432
 20
164.1210315596201
 30
0.0
 10
77.0312112814945
 20
164.0187967480102
 30
0.0
 10
76.9898005711473
 20
163.9238450251454
 30
0.0
 10
76.9447453749719
 20
163.8351778768156
 30
0.0
 10
76.89647554888623
 20
163.7520115841361
 30
0.0
 10
76.8438868038832
 20
163.6750118372049
 30
0.0
 10
76.78783339068676
 20
163.603633180132
 30
0.0
 10
76.72711560189379
 20
163.5391355574805
 30
0.0
 10
76.66344501679178
 20
163.4799648855173
 30
0.0
 10
76.59603260095784
 20
163.4273132580552
 30
0.0
 10
76.52562104972569
 20
163.3812284534188
 30
0.0
 10
76.4536619728008
 20
163.340014603031
 30
0.0
 10
76.3788785894535
 20
163.3067819079811
 30
0.0
 10
76.30296563672402
 20
163.2782468670034
 30
0.0
 10
76.22483727060906
 20
163.2564464151173
 30
0.0
 10
76.14459087991962
 20
163.2413725595966
 30
0.0
 10
76.06263464399093
 20
163.2308007111419
 30
0.0
 10
76.00723307890966
 20
163.2299942312666
 30
0.0
 10
75.97938817179734
 20
163.2295888933094
 30
0.0
  0
SPLINE
  5
C4
330
1F
100
AcDbEntity
  8
0
  6
Continuous
 62
     7
370
    15
100
AcDbSpline
210
0.0
220
0.0
230
1.0
 70
     8
 71
     3
 72
    31
 73
    27
 74
     0
 42
0.00000001
 43
0.00000001
 12
1.0
 22
0.0
 32
0.0
 13
1.0
 23
0.0
 33
0.0
 40
0.0
 40
0.0
 40
0.0
 40
0.0
 40
0.0337881161627101
 40
0.0671939323738802
 40
0.0998624108568252
 40
0.132566612126258
 40
0.1651511732547861
 40
0.1979131873557933
 40
0.2313190035669631
 40
0.2650832782673747
 40
0.299255308758116
 40
0.3343985665049783
 40
0.3699428235093067
 40
0.4062835607000613
 40
0.4440638196985105
 40
0.4829977068727738
 40
0.5233544466133031
 40
0.5655365896041478
 40
0.6096129240658222
 40
0.6563908113764179
 40
0.7058854949364548
 40
0.75832450026173
 40
0.8138317829411496
 40
0.8727945590393886
 40
0.9347222295400767
 40
1.0
 40
1.0
 40
1.0
 40
1.0
 10
75.97938817179734
 20
166.9090760727966
 30
0.0
 10
76.00722365028167
 20
166.9085882576209
 30
0.0
 10
76.06257965917735
 20
166.9076181467166
 30
0.0
 10
76.14442003442326
 20
166.898294204182
 30
0.0
 10
76.22436971613786
 20
166.882823081085
 30
0.0
 10
76.30208785484136
 20
166.8609021065024
 30
0.0
 10
76.37821284130914
 20
166.833706429843
 30
0.0
 10
76.45214924895477
 20
166.7996193127338
 30
0.0
 10
76.52435633059682
 20
166.7599404453894
 30
0.0
 10
76.59368661811672
 20
166.7133165680827
 30
0.0
 10
76.66090123346281
 20
166.661334291886
 30
0.0
 10
76.7243491964349
 20
166.6025716230826
 30
0.0
 10
76.78403628233237
 20
166.537621903814
 30
0.0
 10
76.8407115877186
 20
166.4671800399274
 30
0.0
 10
76.89276718491783
 20
166.3898949550938
 30
0.0
 10
76.94234061715328
 20
166.3071108452796
 30
0.0
 10
76.98671265305492
 20
166.2173799804858
 30
0.0
 10
77.02944732823353
 20
166.1221995126448
 30
0.0
 10
77.06633431497276
 20
166.0189358538381
 30
0.0
 10
77.0996005602451
 20
165.90817109332
 30
0.0
 10
77.12647952882003
 20
165.7885969064667
 30
0.0
 10
77.14886880115814
 20
165.6608406611715
 30
0.0
 10
77.16621369710377
 20
165.5244331779315
 30
0.0
 10
77.17884633918231
 20
165.3796668624196
 30
0.0
 10
77.18551942422366
 20
165.2264464717789
 30
0.0
 10
77.18677612543033
 20
165.1216886226017
 30
0.0
 10
77.18742102436144
 20
165.0679302394632
 30
0.0
  0
SPLINE
  5
C5
330
1F
100
AcDbEntity
  8
0
  6
Continuous
 62
     7
370
    15
100
AcDbSpline
210
0.0
220
0.0
230
1.0
 70
     8
 71
     3
 72
    31
 73
    27
 74
     0
 42
0.00000001
 43
0.00000001
 12
1.0
 22
0.0
 32
0.0
 13
1.0
 23
0.0
 33
0.0
 40
0.0
 40
0.0
 40
0.0
 40
0.0
 40
0.0685946222587445
 40
0.1332460424433006
 40
0.1943125864682546
 40
0.2512792231169647
 40
0.3045134392563465
 40
0.3542349066533269
 40
0.4004805887739888
 40
0.4434107549384909
 40
0.4840148686163446
 40
0.5232523007732035
 40
0.5610423727283619
 40
0.5979002393643984
 40
0.6335184888561967
 40
0.668314351169651
 40
0.7024956712863801
 40
0.7366853535134601
 40
0.7702931693607876
 40
0.803437255019248
 40
0.8359129516660281
 40
0.8684602457892904
 40
0.9008465382431818
 40
0.9334665246307071
 40
0.9662575752981232
 40
1.0
 40
1.0
 40
1.0
 40
1.0
 10
74.8092158961563
 20
165.0679302394632
 30
0.0
 10
74.80954391431376
 20
165.1240276271975
 30
0.0
 10
74.81018109431261
 20
165.232997611445
 30
0.0
 10
74.81726951525485
 20
165.3917822535117
 30
0.0
 10
74.82904485756802
 20
165.5407425425069
 30
0.0
 10
74.8451822304183
 20
165.6798856085454
 30
0.0
 10
74.8648202106419
 20
165.809247373063
 30
0.0
 10
74.89103569724321
 20
165.9284821301994
 30
0.0
 10
74.92084849985817
 20
166.0381417368124
 30
0.0
 10
74.95540094566869
 20
166.1385837852884
 30
0.0
 10
74.99438873468704
 20
166.2311614883106
 30
0.0
 10
75.0368229954091
 20
166.3175866896043
 30
0.0
 10
75.08438778983266
 20
166.3977286219442
 30
0.0
 10
75.13436470275978
 20
166.4728664123641
 30
0.0
 10
75.18877677438758
 20
166.5417701071564
 30
0.0
 10
75.24607556485482
 20
166.605412769675
 30
0.0
 10
75.30849744112196
 20
166.6623235201387
 30
0.0
 10
75.3739204493954
 20
166.7141698225238
 30
0.0
 10
75.44293691378714
 20
166.7596192941957
 30
0.0
 10
75.51357957993032
 20
166.7996520328115
 30
0.0
 10
75.58633468578627
 20
166.8338519000691
 30
0.0
 10
75.66140086868418
 20
166.8607423359287
 30
0.0
 10
75.73810342657389
 20
166.8829531827013
 30
0.0
 10
75.81671049326516
 20
166.8981421303478
 30
0.0
 10
75.89735185720149
 20
166.9076990388373
 30
0.0
 10
75.95178329199965
 20
166.9086127065774
 30
0.0
 10
75.97938817179734
 20
166.9090760727966
 30
0.0
  0
SPLINE
  5
C6
330
1F
100
AcDbEntity
  8
0
  6
Continuous
 62
     7
370
    15
100
AcDbSpline
210
0.0
220
0.0
230
1.0
 70
     8
 71
     3
 72
    31
 73
    27
 74
     0
 42
0.00000001
 43
0.00000001
 12
1.0
 22
0.0
 32
0.0
 13
1.0
 23
0.0
 33
0.0
 40
0.0
 40
0.0
 40
0.0
 40
0.0
 40
0.0337871463469908
 40
0.0666216577242936
 40
0.0992848780959729
 40
0.1313611650426497
 40
0.1635851875953439
 40
0.1961039269870666
 40
0.2289022543238157
 40
0.2621580559050065
 40
0.2959912222583153
 40
0.3302178457248015
 40
0.3650598258919539
 40
0.4009507373401057
 40
0.4376203820767373
 40
0.4757075294370927
 40
0.5153806916250498
 40
0.5564135414931654
 40
0.5997648298727312
 40
0.6464241555840854
 40
0.696431444517567
 40
0.749781517801559
 40
0.8065733069755339
 40
0.8674355315653998
 40
0.9318867532508719
 40
1.0
 40
1.0
 40
1.0
 40
1.0
 10
75.97938817179734
 20
163.2295888933094
 30
0.0
 10
75.95178405781206
 20
163.2300552487682
 30
0.0
 10
75.89735413304656
 20
163.2309748107056
 30
0.0
 10
75.81670170760711
 20
163.2404885421938
 30
0.0
 10
75.73841926416718
 20
163.2557840454062
 30
0.0
 10
75.66212051012955
 20
163.2772006494972
 30
0.0
 10
75.58741399504586
 20
163.3034154858127
 30
0.0
 10
75.51531770839009
 20
163.3375691694157
 30
0.0
 10
75.4450300246994
 20
163.3769032383716
 30
0.0
 10
75.37673846868132
 20
163.4216986598099
 30
0.0
 10
75.31172630764148
 20
163.4730203429383
 30
0.0
 10
75.24962770232767
 20
163.5297846316248
 30
0.0
 10
75.19200268323068
 20
163.5934080429222
 30
0.0
 10
75.13836858761336
 20
163.6628859660299
 30
0.0
 10
75.08739449941763
 20
163.7375792083627
 30
0.0
 10
75.04050512609837
 20
163.8185075814081
 30
0.0
 10
74.99713427203031
 20
163.9053501918977
 30
0.0
 10
74.95749078136178
 20
163.9986681025728
 30
0.0
 10
74.92234211784687
 20
164.0998230304326
 30
0.0
 10
74.89129440973343
 20
164.2099722089351
 30
0.0
 10
74.86678025226337
 20
164.3300878450491
 30
0.0
 10
74.8457972969305
 20
164.4592052121545
 30
0.0
 10
74.828872913887
 20
164.5978791425403
 30
0.0
 10
74.81731858856863
 20
164.7461849207272
 30
0.0
 10
74.81017727353287
 20
164.9040301296534
 30
0.0
 10
74.80954220311276
 20
165.01229990397
 30
0.0
 10
74.8092158961563
 20
165.0679302394632
 30
0.0
  0
LINE
  5
C7
330
1F
100
AcDbEntity
  8
0
  6
Continuous
 62
     7
370
    15
100
AcDbLine
 10
83.8284459931
 20
163.3193340822
 30
0.0
 11
83.5143444163
 21
163.3193340822
 31
0.0
  0
LINE
  5
C8
330
1F
100
AcDbEntity
  8
0
  6
Continuous
 62
     7
370
    15
100
AcDbLine
 10
83.8284459931
 20
164.244115047
 30
0.0
 11
83.8284459931
 21
163.3193340822
 31
0.0
  0
SPLINE
  5
C9
330
1F
100
AcDbEntity
  8
0
  6
Continuous
 62
     7
370
    15
100
AcDbSpline
210
0.0
220
0.0
230
1.0
 70
     8
 71
     3
 72
    15
 73
    11
 74
     0
 42
0.00000001
 43
0.00000001
 12
1.0
 22
0.0
 32
0.0
 13
1.0
 23
0.0
 33
0.0
 40
0.0
 40
0.0
 40
0.0
 40
0.0
 40
0.0759990781976472
 40
0.1656113455724477
 40
0.2690450272477343
 40
0.3874479753729768
 40
0.5188266584719746
 40
0.6653935553138961
 40
0.8250827975617746
 40
1.0
 40
1.0
 40
1.0
 40
1.0
 10
83.87682406923322
 20
164.9305103676683
 30
0.0
 10
83.87288464199641
 20
164.9134894167513
 30
0.0
 10
83.86430014517165
 20
164.8763986697167
 30
0.0
 10
83.85498531188725
 20
164.8152243457848
 30
0.0
 10
83.8466475152718
 20
164.7441379737783
 30
0.0
 10
83.83959896550688
 20
164.6632473734732
 30
0.0
 10
83.83527587912162
 20
164.5722561312163
 30
0.0
 10
83.83061763834922
 20
164.4717851721276
 30
0.0
 10
83.82888362436552
 20
164.3612051513198
 30
0.0
 10
83.82859667146143
 20
164.2843096438808
 30
0.0
 10
83.82844666538708
 20
164.2441121304889
 30
0.0
  0
SPLINE
  5
CA
330
1F
100
AcDbEntity
  8
0
  6
Continuous
 62
     7
370
    15
100
AcDbSpline
210
0.0
220
0.0
230
1.0
 70
     8
 71
     3
 72
    23
 73
    19
 74
     0
 42
0.00000001
 43
0.00000001
 12
1.0
 22
0.0
 32
0.0
 13
1.0
 23
0.0
 33
0.0
 40
0.0
 40
0.0
 40
0.0
 40
0.0
 40
0.0640199753991876
 40
0.1266938772026804
 40
0.1890843947192402
 40
0.2503626319435306
 40
0.3125164793751671
 40
0.374242602415243
 40
0.4378501622567378
 40
0.5026573259791458
 40
0.567745439123211
 40
0.6305759140874044
 40
0.6927720900845485
 40
0.7542675456219408
 40
0.8151205536325745
 40
0.8760513585553978
 40
0.937981798118654
 40
1.0
 40
1.0
 40
1.0
 40
1.0
 10
84.74621509487426
 20
165.6077940215145
 30
0.0
 10
84.72094732169634
 20
165.6073181951969
 30
0.0
 10
84.67094305143186
 20
165.6063765472085
 30
0.0
 10
84.59679438561777
 20
165.5969226486686
 30
0.0
 10
84.52486532209724
 20
165.5814739300701
 30
0.0
 10
84.4544631442434
 20
165.560569391361
 30
0.0
 10
84.38707994653116
 20
165.532123854885
 30
0.0
 10
84.32075162155586
 20
165.4991936655564
 30
0.0
 10
84.2573574126109
 20
165.4588854105932
 30
0.0
 10
84.19577159574963
 20
165.4136596431535
 30
0.0
 10
84.13845406240301
 20
165.3635898834358
 30
0.0
 10
84.08512694692723
 20
165.3107429284243
 30
0.0
 10
84.03758860677067
 20
165.2544679641746
 30
0.0
 10
83.99452001579574
 20
165.1956678480977
 30
0.0
 10
83.95734173014061
 20
165.1335360546373
 30
0.0
 10
83.92488864804668
 20
165.0686717362266
 30
0.0
 10
83.89735295165836
 20
165.0009895905947
 30
0.0
 10
83.88367025940278
 20
164.9540145289355
 30
0.0
 10
83.87682406923322
 20
164.9305103676683
 30
0.0
  0
SPLINE
  5
CB
330
1F
100
AcDbEntity
  8
0
  6
Continuous
 62
     7
370
    15
100
AcDbSpline
210
0.0
220
0.0
230
1.0
 70
     8
 71
     3
 72
    15
 73
    11
 74
     0
 42
0.00000001
 43
0.00000001
 12
1.0
 22
0.0
 32
0.0
 13
1.0
 23
0.0
 33
0.0
 40
0.0
 40
0.0
 40
0.0
 40
0.0
 40
0.1362573959516143
 40
0.261954050111133
 40
0.3796376751609874
 40
0.4943790325909194
 40
0.6098662115170681
 40
0.7298874857748343
 40
0.8592125479192216
 40
1.0
 40
1.0
 40
1.0
 40
1.0
 10
85.40737294743836
 20
165.1043885727966
 30
0.0
 10
85.39594870234215
 20
165.1440828364546
 30
0.0
 10
85.37398565768312
 20
165.2203948271454
 30
0.0
 10
85.32293768049229
 20
165.3240572372247
 30
0.0
 10
85.25917866943219
 20
165.4124419779368
 30
0.0
 10
85.18133140785648
 20
165.4843562660862
 30
0.0
 10
85.09077304374757
 20
165.5407678054412
 30
0.0
 10
84.98691307963678
 20
165.5798355876432
 30
0.0
 10
84.87072901120382
 20
165.6040833096143
 30
0.0
 10
84.7888775394255
 20
165.606522613102
 30
0.0
 10
84.74621509487426
 20
165.6077940215145
 30
0.0
  0
SPLINE
  5
CC
330
1F
100
AcDbEntity
  8
0
  6
Continuous
 62
     7
370
    15
100
AcDbSpline
210
0.0
220
0.0
230
1.0
 70
     8
 71
     3
 72
    15
 73
    11
 74
     0
 42
0.00000001
 43
0.00000001
 12
1.0
 22
0.0
 32
0.0
 13
1.0
 23
0.0
 33
0.0
 40
0.0
 40
0.0
 40
0.0
 40
0.0
 40
0.1788665699309752
 40
0.3421413072700045
 40
0.4898709911205306
 40
0.6233121032799133
 40
0.7400556234382709
 40
0.8414680041078567
 40
0.9289010934037827
 40
1.0
 40
1.0
 40
1.0
 40
1.0
 10
85.44383128077168
 20
164.522457483053
 30
0.0
 10
85.44364097760756
 20
164.5572801525873
 30
0.0
 10
85.44327696004193
 20
164.6238899929934
 30
0.0
 10
85.4420736154806
 20
164.7192561013557
 30
0.0
 10
85.43938740014526
 20
164.8057522359277
 30
0.0
 10
85.43504657430681
 20
164.8831011876934
 30
0.0
 10
85.43048126692696
 20
164.9514107910047
 30
0.0
 10
85.42419794974987
 20
165.0105818454395
 30
0.0
 10
85.41688771571084
 20
165.0606956207415
 30
0.0
 10
85.41031893429535
 20
165.0908602493722
 30
0.0
 10
85.40737294743836
 20
165.1043885727966
 30
0.0
  0
LINE
  5
CD
330
1F
100
AcDbEntity
  8
0
  6
Continuous
 62
     7
370
    15
100
AcDbLine
 10
85.4438305867
 20
163.3193340822
 30
0.0
 11
85.4438305867
 21
164.522453837
 31
0.0
  0
LINE
  5
CE
330
1F
100
AcDbEntity
  8
0
  6
Continuous
 62
     7
370
    15
100
AcDbLine
 10
85.7579340261
 20
163.3193340822
 30
0.0
 11
85.4438305867
 21
163.3193340822
 31
0.0
  0
LINE
  5
CF
330
1F
100
AcDbEntity
  8
0
  6
Continuous
 62
     7
370
    15
100
AcDbLine
 10
85.7579340261
 20
164.625525169
 30
0.0
 11
85.7579340261
 21
163.3193340822
 31
0.0
  0
SPLINE
  5
D0
330
1F
100
AcDbEntity
  8
0
  6
Continuous
 62
     7
370
    15
100
AcDbSpline
210
0.0
220
0.0
230
1.0
 70
     8
 71
     3
 72
    23
 73
    19
 74
     0
 42
0.00000001
 43
0.00000001
 12
1.0
 22
0.0
 32
0.0
 13
1.0
 23
0.0
 33
0.0
 40
0.0
 40
0.0
 40
0.0
 40
0.0
 40
0.077228553233494
 40
0.1511549072635814
 40
0.2234536379509592
 40
0.2954972249195528
 40
0.3669198573541516
 40
0.4367940850066736
 40
0.5066964308522682
 40
0.5778638467408501
 40
0.6159118097672348
 40
0.6580480255185089
 40
0.7037759860580352
 40
0.7540801428690654
 40
0.8089794210802159
 40
0.8679131928433395
 40
0.9317018161757247
 40
1.0
 40
1.0
 40
1.0
 40
1.0
 10
84.80160371666913
 20
165.9218965856171
 30
0.0
 10
84.8489341094867
 20
165.9201511553497
 30
0.0
 10
84.94157110497025
 20
165.9167349272949
 30
0.0
 10
85.07645256767334
 20
165.8897215462646
 30
0.0
 10
85.20241344259138
 20
165.8435641081867
 30
0.0
 10
85.31907928537672
 20
165.7803970831337
 30
0.0
 10
85.42390398249024
 20
165.7017242558876
 30
0.0
 10
85.51675374671663
 20
165.610892733248
 30
0.0
 10
85.59259454550775
 20
165.5056188151057
 30
0.0
 10
85.64419366246304
 20
165.4083625611365
 30
0.0
 10
85.67776707030917
 20
165.3218238071799
 30
0.0
 10
85.69901889667398
 20
165.2475872949265
 30
0.0
 10
85.71703809499327
 20
165.1648653816799
 30
0.0
 10
85.73273783077542
 20
165.0737006493264
 30
0.0
 10
85.74320141236716
 20
164.9736554780122
 30
0.0
 10
85.75160603036075
 20
164.8651812235627
 30
0.0
 10
85.75758248457275
 20
164.7482841054399
 30
0.0
 10
85.75781408904652
 20
164.6673638560553
 30
0.0
 10
85.75793384487424
 20
164.6255223868991
 30
0.0
  0
SPLINE
  5
D1
330
1F
100
AcDbEntity
  8
0
  6
Continuous
 62
     7
370
    15
100
AcDbSpline
210
0.0
220
0.0
230
1.0
 70
     8
 71
     3
 72
    15
 73
    11
 74
     0
 42
0.00000001
 43
0.00000001
 12
1.0
 22
0.0
 32
0.0
 13
1.0
 23
0.0
 33
0.0
 40
0.0
 40
0.0
 40
0.0
 40
0.0
 40
0.1407235132503507
 40
0.2739958912186161
 40
0.4006841600587745
 40
0.522554679004769
 40
0.6415337705510096
 40
0.759969142862268
 40
0.878404515173524
 40
1.0
 40
1.0
 40
1.0
 40
1.0
 10
83.82844666538708
 20
165.3939518740786
 30
0.0
 10
83.86216396703286
 20
165.4360958561731
 30
0.0
 10
83.92781328107102
 20
165.5181523488427
 30
0.0
 10
84.03830939768595
 20
165.6252135397056
 30
0.0
 10
84.15178026980239
 20
165.7180121609305
 30
0.0
 10
84.27214507962923
 20
165.7918826181449
 30
0.0
 10
84.39719559997152
 20
165.8502391614011
 30
0.0
 10
84.52745924440048
 20
165.8916268078701
 30
0.0
 10
84.66296021568697
 20
165.9170779045285
 30
0.0
 10
84.75498536572601
 20
165.9202763223918
 30
0.0
 10
84.80160371666913
 20
165.9218965856171
 30
0.0
  0
LINE
  5
D2
330
1F
100
AcDbEntity
  8
0
  6
Continuous
 62
     7
370
    15
100
AcDbLine
 10
83.8284459931
 20
166.9090759679
 30
0.0
 11
83.8284459931
 21
165.3939482494
 31
0.0
  0
LINE
  5
D3
330
1F
100
AcDbEntity
  8
0
  6
Continuous
 62
     7
370
    15
100
AcDbLine
 10
83.5143444163
 20
166.9090759679
 30
0.0
 11
83.8284459931
 21
166.9090759679
 31
0.0
  0
LINE
  5
D4
330
1F
100
AcDbEntity
  8
0
  6
Continuous
 62
     7
370
    15
100
AcDbLine
 10
83.5143444163
 20
163.3193340822
 30
0.0
 11
83.5143444163
 21
166.9090759679
 31
0.0
  0
SPLINE
  5
D5
330
1F
100
AcDbEntity
  8
0
  6
Continuous
 62
     7
370
    15
100
AcDbSpline
210
0.0
220
0.0
230
1.0
 70
     8
 71
     3
 72
    23
 73
    19
 74
     0
 42
0.00000001
 43
0.00000001
 12
1.0
 22
0.0
 32
0.0
 13
1.0
 23
0.0
 33
0.0
 40
0.0
 40
0.0
 40
0.0
 40
0.0
 40
0.0679784896192481
 40
0.1330435352439087
 40
0.1965074380533907
 40
0.2586134167685792
 40
0.3197283376065493
 40
0.3808728540495662
 40
0.4426356023162029
 40
0.5050793035048753
 40
0.5678805200585746
 40
0.6288138541554867
 40
0.6889100905404423
 40
0.7487650058898448
 40
0.8093857829631192
 40
0.8708843357532254
 40
0.9340374630737025
 40
1.0
 40
1.0
 40
1.0
 40
1.0
 10
65.56562615256655
 20
158.4175896945914
 30
0.0
 10
65.56616034788897
 20
158.4412150925399
 30
0.0
 10
65.56720584381867
 20
158.487453343525
 30
0.0
 10
65.57554989539446
 20
158.5553921638282
 30
0.0
 10
65.59074160659048
 20
158.6199403176768
 30
0.0
 10
65.60979652918934
 20
158.6820671806853
 30
0.0
 10
65.63627953363338
 20
158.740569274723
 30
0.0
 10
65.66792543877834
 20
158.7962267457532
 30
0.0
 10
65.70511286370225
 20
158.8489626637556
 30
0.0
 10
65.74795615455041
 20
158.8979657958436
 30
0.0
 10
65.79506279979397
 20
158.9424751221508
 30
0.0
 10
65.8459575695293
 20
158.9812737501222
 30
0.0
 10
65.89949582611014
 20
159.0143801049186
 30
0.0
 10
65.95590424566919
 20
159.0421452655098
 30
0.0
 10
66.01572471863312
 20
159.0631466481046
 30
0.0
 10
66.07853910496983
 20
159.077604033173
 30
0.0
 10
66.14422025984908
 20
159.087259235974
 30
0.0
 10
66.18912138581058
 20
159.0881223202705
 30
0.0
 10
66.21206044743835
 20
159.0885632522837
 30
0.0
  0
SPLINE
  5
D6
330
1F
100
AcDbEntity
  8
0
  6
Continuous
 62
     7
370
    15
100
AcDbSpline
210
0.0
220
0.0
230
1.0
 70
     8
 71
     3
 72
    11
 73
     7
 74
     0
 42
0.00000001
 43
0.00000001
 12
1.0
 22
0.0
 32
0.0
 13
1.0
 23
0.0
 33
0.0
 40
0.0
 40
0.0
 40
0.0
 40
0.0
 40
0.2462523706929813
 40
0.4925907964763658
 40
0.7405699911180718
 40
1.0
 40
1.0
 40
1.0
 40
1.0
 10
65.68271349231016
 20
158.0235592458735
 30
0.0
 10
65.66458289265384
 20
158.0527048609092
 30
0.0
 10
65.62831535744124
 20
158.1110062761761
 30
0.0
 10
65.59310016626313
 20
158.2083167529081
 30
0.0
 10
65.568894137386
 20
158.3107618102374
 30
0.0
 10
65.56673174721666
 20
158.3814486645835
 30
0.0
 10
65.56562615256655
 20
158.4175896945914
 30
0.0
  0
SPLINE
  5
D7
330
1F
100
AcDbEntity
  8
0
  6
Continuous
 62
     7
370
    15
100
AcDbSpline
210
0.0
220
0.0
230
1.0
 70
     8
 71
     3
 72
    15
 73
    11
 74
     0
 42
0.00000001
 43
0.00000001
 12
1.0
 22
0.0
 32
0.0
 13
1.0
 23
0.0
 33
0.0
 40
0.0
 40
0.0
 40
0.0
 40
0.0
 40
0.1577616635135498
 40
0.3059502132085448
 40
0.4437754990007314
 40
0.5728243624015459
 40
0.6921541564432369
 40
0.8022957069908432
 40
0.9055643918329925
 40
1.0
 40
1.0
 40
1.0
 40
1.0
 10
66.12371910128451
 20
157.6744005920273
 30
0.0
 10
66.0976724612451
 20
157.6889397236916
 30
0.0
 10
66.04715971375026
 20
157.7171357399701
 30
0.0
 10
65.97561242281441
 20
157.7610518202284
 30
0.0
 10
65.91106506859566
 20
157.8057190949086
 30
0.0
 10
65.85196449403294
 20
157.8486319341584
 30
0.0
 10
65.79980348835547
 20
157.8920528781059
 30
0.0
 10
65.75478754005051
 20
157.9360301295734
 30
0.0
 10
65.71514432421895
 20
157.9787901156527
 30
0.0
 10
65.69319691248775
 20
158.0090874122674
 30
0.0
 10
65.68271349231016
 20
158.0235592458735
 30
0.0
  0
SPLINE
  5
D8
330
1F
100
AcDbEntity
  8
0
  6
Continuous
 62
     7
370
    15
100
AcDbSpline
210
0.0
220
0.0
230
1.0
 70
     8
 71
     3
 72
    15
 73
    11
 74
     0
 42
0.00000001
 43
0.00000001
 12
1.0
 22
0.0
 32
0.0
 13
1.0
 23
0.0
 33
0.0
 40
0.0
 40
0.0
 40
0.0
 40
0.0
 40
0.0768750740350562
 40
0.1674616757257211
 40
0.2722700232466418
 40
0.3895508405125286
 40
0.5208013683480497
 40
0.6662632933752219
 40
0.8255449152058588
 40
1.0
 40
1.0
 40
1.0
 40
1.0
 10
66.51143945384861
 20
157.4107787971555
 30
0.0
 10
66.50341705942122
 20
157.4198141593073
 30
0.0
 10
66.48594138696164
 20
157.4394964413176
 30
0.0
 10
66.45388614569607
 20
157.4679215201792
 30
0.0
 10
66.41550428349532
 20
157.4985596193325
 30
0.0
 10
66.37036412056308
 20
157.5308912082713
 30
0.0
 10
66.3183746586255
 20
157.5644898135634
 30
0.0
 10
66.25932518323569
 20
157.5991791658129
 30
0.0
 10
66.19402463068728
 20
157.6366068916014
 30
0.0
 10
66.14785399936937
 20
157.6614265469447
 30
0.0
 10
66.12371910128451
 20
157.6744005920273
 30
0.0
  0
SPLINE
  5
D9
330
1F
100
AcDbEntity
  8
0
  6
Continuous
 62
     7
370
    15
100
AcDbSpline
210
0.0
220
0.0
230
1.0
 70
     8
 71
     3
 72
    11
 73
     7
 74
     0
 42
0.00000001
 43
0.00000001
 12
1.0
 22
0.0
 32
0.0
 13
1.0
 23
0.0
 33
0.0
 40
0.0
 40
0.0
 40
0.0
 40
0.0
 40
0.2534754346498442
 40
0.5004533151029164
 40
0.7455781350009868
 40
1.0
 40
1.0
 40
1.0
 40
1.0
 10
66.59767743461784
 20
157.1667884125401
 30
0.0
 10
66.59659114027903
 20
157.1890980312022
 30
0.0
 10
66.5944463975201
 20
157.2331453868505
 30
0.0
 10
66.57760312551558
 20
157.2968957278946
 30
0.0
 10
66.55099027325578
 20
157.357365008577
 30
0.0
 10
66.52478562490204
 20
157.3927546558187
 30
0.0
 10
66.51143945384861
 20
157.4107787971555
 30
0.0
  0
SPLINE
  5
DA
330
1F
100
AcDbEntity
  8
0
  6
Continuous
 62
     7
370
    15
100
AcDbSpline
210
0.0
220
0.0
230
1.0
 70
     8
 71
     3
 72
    15
 73
    11
 74
     0
 42
0.00000001
 43
0.00000001
 12
1.0
 22
0.0
 32
0.0
 13
1.0
 23
0.0
 33
0.0
 40
0.0
 40
0.0
 40
0.0
 40
0.0
 40
0.1340420464623709
 40
0.2618956736507323
 40
0.3878360446911133
 40
0.5176862058208171
 40
0.6445086536782113
 40
0.7647182630567158
 40
0.8802907821584961
 40
1.0
 40
1.0
 40
1.0
 40
1.0
 10
66.1461549987204
 20
156.7552299189504
 30
0.0
 10
66.17647292467845
 20
156.7566007438106
 30
0.0
 10
66.23570906626261
 20
156.7592791056358
 30
0.0
 10
66.32055282487659
 20
156.7835961976656
 30
0.0
 10
66.39889145132706
 20
156.8217261494907
 30
0.0
 10
66.46691479684594
 20
156.8758108476508
 30
0.0
 10
66.52481695791349
 20
156.9387664202505
 30
0.0
 10
66.56674513232122
 20
157.0096805395508
 30
0.0
 10
66.5930213077821
 20
157.08647199624
 30
0.0
 10
66.59610730643806
 20
157.1397042988592
 30
0.0
 10
66.59767743461784
 20
157.1667884125401
 30
0.0
  0
SPLINE
  5
DB
330
1F
100
AcDbEntity
  8
0
  6
Continuous
 62
     7
370
    15
100
AcDbSpline
210
0.0
220
0.0
230
1.0
 70
     8
 71
     3
 72
    15
 73
    11
 74
     0
 42
0.00000001
 43
0.00000001
 12
1.0
 22
0.0
 32
0.0
 13
1.0
 23
0.0
 33
0.0
 40
0.0
 40
0.0
 40
0.0
 40
0.0
 40
0.14747581774837
 40
0.2859041715443827
 40
0.417171648244443
 40
0.5405007435865029
 40
0.6592377183802374
 40
0.7750060983159565
 40
0.8872285734286373
 40
1.0
 40
1.0
 40
1.0
 40
1.0
 10
65.6392439410281
 20
157.0244606881812
 30
0.0
 10
65.65901635400454
 20
157.0031059236534
 30
0.0
 10
65.69734816621465
 20
156.9617064837041
 30
0.0
 10
65.75864938301196
 20
156.9065821430326
 30
0.0
 10
65.82102878411499
 20
156.8603808719006
 30
0.0
 10
65.88386347068929
 20
156.8217374571086
 30
0.0
 10
65.94808356501284
 20
156.791962053951
 30
0.0
 10
66.0133291792465
 20
156.7710434600415
 30
0.0
 10
66.07946760330792
 20
156.7575992678161
 30
0.0
 10
66.12388973912778
 20
156.7560209854965
 30
0.0
 10
66.1461549987204
 20
156.7552299189504
 30
0.0
  0
LINE
  5
DC
330
1F
100
AcDbEntity
  8
0
  6
Continuous
 62
     7
370
    15
100
AcDbLine
 10
65.4310104472
 20
156.7874845787
 30
0.0
 11
65.6392439303
 21
157.0244577451
 31
0.0
  0
SPLINE
  5
DD
330
1F
100
AcDbEntity
  8
0
  6
Continuous
 62
     7
370
    15
100
AcDbSpline
210
0.0
220
0.0
230
1.0
 70
     8
 71
     3
 72
    15
 73
    11
 74
     0
 42
0.00000001
 43
0.00000001
 12
1.0
 22
0.0
 32
0.0
 13
1.0
 23
0.0
 33
0.0
 40
0.0
 40
0.0
 40
0.0
 40
0.0
 40
0.1267425189618443
 40
0.2517239612496061
 40
0.3772186880262399
 40
0.5046935492516252
 40
0.6314582385934809
 40
0.7554010672029434
 40
0.8777005336014722
 40
0.9999999999999999
 40
0.9999999999999999
 40
0.9999999999999999
 40
0.9999999999999999
 10
66.16228080000246
 20
156.4411273548478
 30
0.0
 10
66.1269136245645
 20
156.4421200551734
 30
0.0
 10
66.05667069762585
 20
156.4440916623367
 30
0.0
 10
65.95278097847712
 20
156.4625977235004
 30
0.0
 10
65.85126021981246
 20
156.491393117468
 30
0.0
 10
65.75287667950607
 20
156.5311090516261
 30
0.0
 10
65.65983056561703
 20
156.5812597644834
 30
0.0
 10
65.57469964101612
 20
156.6413221580696
 30
0.0
 10
65.49718817855539
 20
156.7093121554735
 30
0.0
 10
65.45306990481924
 20
156.7614250661675
 30
0.0
 10
65.43101076795118
 20
156.7874815215145
 30
0.0
  0
SPLINE
  5
DE
330
1F
100
AcDbEntity
  8
0
  6
Continuous
 62
     7
370
    15
100
AcDbSpline
210
0.0
220
0.0
230
1.0
 70
     8
 71
     3
 72
    23
 73
    19
 74
     0
 42
0.00000001
 43
0.00000001
 12
1.0
 22
0.0
 32
0.0
 13
1.0
 23
0.0
 33
0.0
 40
0.0
 40
0.0
 40
0.0
 40
0.0
 40
0.0645481255642548
 40
0.1271991327555093
 40
0.1885973380874277
 40
0.2486395150940113
 40
0.3095246994640627
 40
0.3700369910533508
 40
0.4318892436070736
 40
0.4957042857252907
 40
0.5595193278435101
 40
0.6213715803972354
 40
0.6823971072916394
 40
0.7435684819321653
 40
0.8054984835712127
 40
0.8686397008205239
 40
0.9330662250811641
 40
1.0
 40
1.0
 40
1.0
 40
1.0
 10
66.9117799987204
 20
157.1801097266427
 30
0.0
 10
66.91106046490496
 20
157.1548405803979
 30
0.0
 10
66.90964254491875
 20
157.1050449672842
 30
0.0
 10
66.89978447798092
 20
157.0317101375832
 30
0.0
 10
66.88282950165775
 20
156.9615755800467
 30
0.0
 10
66.85973574770073
 20
156.8938802953453
 30
0.0
 10
66.82855137479692
 20
156.8299213557277
 30
0.0
 10
66.79200357764559
 20
156.7680851067401
 30
0.0
 10
66.74812866590976
 20
156.7097091759508
 30
0.0
 10
66.69803729029299
 20
156.6548702157729
 30
0.0
 10
66.64319179631396
 20
156.6047844683525
 30
0.0
 10
66.58468565796046
 20
156.5607605144864
 30
0.0
 10
66.52244682735059
 20
156.5241861772872
 30
0.0
 10
66.45692002592821
 20
156.4939208320443
 30
0.0
 10
66.38795637185567
 20
156.4698525740979
 30
0.0
 10
66.31554508256913
 20
156.4531900428441
 30
0.0
 10
66.23991632799752
 20
156.4432172817499
 30
0.0
 10
66.18848651986653
 20
156.4418328055654
 30
0.0
 10
66.16228080000246
 20
156.4411273548478
 30
0.0
  0
SPLINE
  5
DF
330
1F
100
AcDbEntity
  8
0
  6
Continuous
 62
     7
370
    15
100
AcDbSpline
210
0.0
220
0.0
230
1.0
 70
     8
 71
     3
 72
    11
 73
     7
 74
     0
 42
0.00000001
 43
0.00000001
 12
1.0
 22
0.0
 32
0.0
 13
1.0
 23
0.0
 33
0.0
 40
0.0
 40
0.0
 40
0.0
 40
0.0
 40
0.2488386141270693
 40
0.495235025457662
 40
0.7433356038750205
 40
1.0
 40
1.0
 40
1.0
 40
1.0
 10
66.7925892935922
 20
157.5755424189504
 30
0.0
 10
66.81079982100424
 20
157.5458763308999
 30
0.0
 10
66.84704215034746
 20
157.4868353097848
 30
0.0
 10
66.88510041680343
 20
157.389616882342
 30
0.0
 10
66.90716069164624
 20
157.2865063799048
 30
0.0
 10
66.91022291186982
 20
157.2159741597881
 30
0.0
 10
66.9117799987204
 20
157.1801097266427
 30
0.0
  0
SPLINE
  5
E0
330
1F
100
AcDbEntity
  8
0
  6
Continuous
 62
     7
370
    15
100
AcDbSpline
210
0.0
220
0.0
230
1.0
 70
     8
 71
     3
 72
    15
 73
    11
 74
     0
 42
0.00000001
 43
0.00000001
 12
1.0
 22
0.0
 32
0.0
 13
1.0
 23
0.0
 33
0.0
 40
0.0
 40
0.0
 40
0.0
 40
0.0
 40
0.1589891012267997
 40
0.3071145916055769
 40
0.4462131585962216
 40
0.5748760724117382
 40
0.6941521095829676
 40
0.8045811801532508
 40
0.906593319045761
 40
1.0
 40
1.0
 40
1.0
 40
1.0
 10
66.33195227436144
 20
157.9345167779248
 30
0.0
 10
66.35916585145853
 20
157.9192718751106
 30
0.0
 10
66.41173352151772
 20
157.8898237427185
 30
0.0
 10
66.48642628877322
 20
157.844114039209
 30
0.0
 10
66.55421332974412
 20
157.7986826149354
 30
0.0
 10
66.6156689973928
 20
157.7540153410578
 30
0.0
 10
66.66961080623467
 20
157.708862473441
 30
0.0
 10
66.71767535888647
 20
157.6649547164673
 30
0.0
 10
66.75866380281276
 20
157.6209654081834
 30
0.0
 10
66.78161772950017
 20
157.5902322945033
 30
0.0
 10
66.7925892935922
 20
157.5755424189504
 30
0.0
  0
SPLINE
  5
E1
330
1F
100
AcDbEntity
  8
0
  6
Continuous
 62
     7
370
    15
100
AcDbSpline
210
0.0
220
0.0
230
1.0
 70
     8
 71
     3
 72
    15
 73
    11
 74
     0
 42
0.00000001
 43
0.00000001
 12
1.0
 22
0.0
 32
0.0
 13
1.0
 23
0.0
 33
0.0
 40
0.0
 40
0.0
 40
0.0
 40
0.0
 40
0.0834251049856425
 40
0.1775598214659664
 40
0.2839823599504464
 40
0.4022167468072193
 40
0.5335684803800502
 40
0.6761209941988153
 40
0.8316493725539871
 40
1.0
 40
1.0
 40
1.0
 40
1.0
 10
65.96666781923322
 20
158.1981385727966
 30
0.0
 10
65.9746313130049
 20
158.1883539884635
 30
0.0
 10
65.99158060581775
 20
158.1675287339122
 30
0.0
 10
66.02338912079453
 20
158.1386248804946
 30
0.0
 10
66.05941162365484
 20
158.1066826295195
 30
0.0
 10
66.1027315613871
 20
158.074745792541
 30
0.0
 10
66.15148258927117
 20
158.0411140673347
 30
0.0
 10
66.20672187348492
 20
158.00711193436
 30
0.0
 10
66.26669637845598
 20
157.9701475094717
 30
0.0
 10
66.3096336850726
 20
157.9467030739279
 30
0.0
 10
66.33195227436144
 20
157.9345167779248
 30
0.0
  0
SPLINE
  5
E2
330
1F
100
AcDbEntity
  8
0
  6
Continuous
 62
     7
370
    15
100
AcDbSpline
210
0.0
220
0.0
230
1.0
 70
     8
 71
     3
 72
    11
 73
     7
 74
     0
 42
0.00000001
 43
0.00000001
 12
1.0
 22
0.0
 32
0.0
 13
1.0
 23
0.0
 33
0.0
 40
0.0
 40
0.0
 40
0.0
 40
0.0
 40
0.240039931495966
 40
0.4794031936060649
 40
0.7317567388575735
 40
1.0
 40
1.0
 40
1.0
 40
1.0
 10
65.87972871666912
 20
158.4302098868991
 30
0.0
 10
65.88083952893446
 20
158.4099978427475
 30
0.0
 10
65.88305802210009
 20
158.3696307319288
 30
0.0
 10
65.90030470131138
 20
158.3100826980883
 30
0.0
 10
65.92777077349108
 20
158.2520256598955
 30
0.0
 10
65.95344096777363
 20
158.2164627535421
 30
0.0
 10
65.96666781923322
 20
158.1981385727966
 30
0.0
  0
SPLINE
  5
E3
330
1F
100
AcDbEntity
  8
0
  6
Continuous
 62
     7
370
    15
100
AcDbSpline
210
0.0
220
0.0
230
1.0
 70
     8
 71
     3
 72
    15
 73
    11
 74
     0
 42
0.00000001
 43
0.00000001
 12
1.0
 22
0.0
 32
0.0
 13
1.0
 23
0.0
 33
0.0
 40
0.0
 40
0.0
 40
0.0
 40
0.0
 40
0.1249584925460658
 40
0.2459006286062648
 40
0.3691660295860744
 40
0.4985108411773576
 40
0.6285038663666062
 40
0.7510283288509858
 40
0.8737241742784192
 40
1.0
 40
1.0
 40
1.0
 40
1.0
 10
66.21206044743835
 20
158.7744606881812
 30
0.0
 10
66.1899210575966
 20
158.7733858152035
 30
0.0
 10
66.14635387166051
 20
158.7712706173045
 30
0.0
 10
66.08392805332686
 20
158.7501571869697
 30
0.0
 10
66.02597742830892
 20
158.7177484485098
 30
0.0
 10
65.97582044830273
 20
158.6717798649546
 30
0.0
 10
65.93333276828143
 20
158.6190155961265
 30
0.0
 10
65.90231908726314
 20
158.5600192712405
 30
0.0
 10
65.88335310363367
 20
158.4965712275343
 30
0.0
 10
65.88094837159153
 20
158.4525413698659
 30
0.0
 10
65.87972871666912
 20
158.4302098868991
 30
0.0
  0
SPLINE
  5
E4
330
1F
100
AcDbEntity
  8
0
  6
Continuous
 62
     7
370
    15
100
AcDbSpline
210
0.0
220
0.0
230
1.0
 70
     8
 71
     3
 72
    15
 73
    11
 74
     0
 42
0.00000001
 43
0.00000001
 12
1.0
 22
0.0
 32
0.0
 13
1.0
 23
0.0
 33
0.0
 40
0.0
 40
0.0
 40
0.0
 40
0.0
 40
0.1582230975563157
 40
0.3050355053581609
 40
0.4413089638878993
 40
0.5659632271047227
 40
0.6835251144150624
 40
0.793334129629598
 40
0.8985175121609998
 40
1.0
 40
1.0
 40
1.0
 40
1.0
 10
66.65376717820759
 20
158.5052299189504
 30
0.0
 10
66.63537667467959
 20
158.5265430652852
 30
0.0
 10
66.59992194888991
 20
158.5676323023397
 30
0.0
 10
66.54369046788749
 20
158.6225693688432
 30
0.0
 10
66.48766686431318
 20
158.6687063077856
 30
0.0
 10
66.43261805073993
 20
158.7076585666949
 30
0.0
 10
66.37715978166571
 20
158.7371077133007
 30
0.0
 10
66.32194286353345
 20
158.758602575241
 30
0.0
 10
66.2669101250185
 20
158.7719043809018
 30
0.0
 10
66.23012408980317
 20
158.7736188195958
 30
0.0
 10
66.21206044743835
 20
158.7744606881812
 30
0.0
  0
LINE
  5
E5
330
1F
100
AcDbEntity
  8
0
  6
Continuous
 62
     7
370
    15
100
AcDbLine
 10
66.8669077602
 20
158.7246802374
 30
0.0
 11
66.6537671384
 21
158.5052308365
 31
0.0
  0
SPLINE
  5
E6
330
1F
100
AcDbEntity
  8
0
  6
Continuous
 62
     7
370
    15
100
AcDbSpline
210
0.0
220
0.0
230
1.0
 70
     8
 71
     3
 72
    15
 73
    11
 74
     0
 42
0.00000001
 43
0.00000001
 12
1.0
 22
0.0
 32
0.0
 13
1.0
 23
0.0
 33
0.0
 40
0.0
 40
0.0
 40
0.0
 40
0.0
 40
0.1057142614175162
 40
0.2134116126389945
 40
0.3261267300734706
 40
0.4444516715568694
 40
0.569061079855084
 40
0.7027122044812116
 40
0.8463179465861955
 40
0.9999999999999999
 40
0.9999999999999999
 40
0.9999999999999999
 40
0.9999999999999999
 10
66.21206044743835
 20
159.0885632522837
 30
0.0
 10
66.23925251090398
 20
159.0874589115863
 30
0.0
 10
66.29414673271825
 20
159.0852295139065
 30
0.0
 10
66.37650135876635
 20
159.0675238233017
 30
0.0
 10
66.4587347008538
 20
159.0383907192023
 30
0.0
 10
66.54105805082142
 20
158.9981544858639
 30
0.0
 10
66.62286834020486
 20
158.9460876099837
 30
0.0
 10
66.7048851968806
 20
158.8831583106154
 30
0.0
 10
66.78809322717075
 20
158.8097805961062
 30
0.0
 10
66.84004954027213
 20
158.7536813706863
 30
0.0
 10
66.86690820384861
 20
158.7246810407453
 30
0.0
  0
SPLINE
  5
E7
330
1F
100
AcDbEntity
  8
0
  6
Continuous
 62
     7
370
    15
100
AcDbSpline
210
0.0
220
0.0
230
1.0
 70
     8
 71
     3
 72
    15
 73
    11
 74
     0
 42
0.00000001
 43
0.00000001
 12
1.0
 22
0.0
 32
0.0
 13
1.0
 23
0.0
 33
0.0
 40
0.0
 40
0.0
 40
0.0
 40
0.0
 40
0.1289191318119513
 40
0.255237724924902
 40
0.3786785959785525
 40
0.501087887185129
 40
0.6227136794297822
 40
0.7462407949383852
 40
0.8715890472316706
 40
1.0
 40
1.0
 40
1.0
 40
1.0
 10
71.98229281923322
 20
157.757834085617
 30
0.0
 10
71.98341612958686
 20
157.80065063151
 30
0.0
 10
71.98564009103478
 20
157.8854200339194
 30
0.0
 10
72.00196060010907
 20
158.0103470945706
 30
0.0
 10
72.02931915659356
 20
158.1310444836352
 30
0.0
 10
72.06805055304814
 20
158.2469699596189
 30
0.0
 10
72.11756574393951
 20
158.3587253956586
 30
0.0
 10
72.17792703188371
 20
158.4661302266449
 30
0.0
 10
72.2497176644242
 20
158.5691180271237
 30
0.0
 10
72.30491961595654
 20
158.6328401071517
 30
0.0
 10
72.33285371666912
 20
158.6650856881812
 30
0.0
  0
SPLINE
  5
E8
330
1F
100
AcDbEntity
  8
0
  6
Continuous
 62
     7
370
    15
100
AcDbSpline
210
0.0
220
0.0
230
1.0
 70
     8
 71
     3
 72
    23
 73
    19
 74
     0
 42
0.00000001
 43
0.00000001
 12
1.0
 22
0.0
 32
0.0
 13
1.0
 23
0.0
 33
0.0
 40
0.0
 40
0.0
 40
0.0
 40
0.0
 40
0.0687422616054881
 40
0.1346351922242765
 40
0.1983241870671455
 40
0.2608250125604198
 40
0.3227135881590226
 40
0.3845545346076187
 40
0.4469128577247569
 40
0.5109576325148294
 40
0.5749307010013349
 40
0.636684537796091
 40
0.6974831152940574
 40
0.7571338075238531
 40
0.8169656636752591
 40
0.8768183516571935
 40
0.9376625803840022
 40
1.0
 40
1.0
 40
1.0
 40
1.0
 10
73.30741301154092
 20
156.4411273548478
 30
0.0
 10
73.25967829203198
 20
156.4423485510655
 30
0.0
 10
73.16618743230812
 20
156.4447403255529
 30
0.0
 10
73.02946145038486
 20
156.4632176082825
 30
0.0
 10
72.89947183144999
 20
156.4939755908519
 30
0.0
 10
72.77624323293058
 20
156.5378430835819
 30
0.0
 10
72.65909838597548
 20
156.5931376273313
 30
0.0
 10
72.54931188902611
 20
156.6617493169095
 30
0.0
 10
72.44611197351024
 20
156.742309472148
 30
0.0
 10
72.35103998909436
 20
156.8344454091978
 30
0.0
 10
72.26504138376826
 20
156.9344553655255
 30
0.0
 10
72.18916837541705
 20
157.0396054040191
 30
0.0
 10
72.125278049267
 20
157.1490154974563
 30
0.0
 10
72.07291984538489
 20
157.262898182397
 30
0.0
 10
72.03208803246677
 20
157.380756914186
 30
0.0
 10
72.00355693979846
 20
157.5029517266457
 30
0.0
 10
71.98521332523254
 20
157.6289710951824
 30
0.0
 10
71.98327415667727
 20
157.7145340281293
 30
0.0
 10
71.98229281923322
 20
157.757834085617
 30
0.0
  0
SPLINE
  5
E9
330
1F
100
AcDbEntity
  8
0
  6
Continuous
 62
     7
370
    15
100
AcDbSpline
210
0.0
220
0.0
230
1.0
 70
     8
 71
     3
 72
    23
 73
    19
 74
     0
 42
0.00000001
 43
0.00000001
 12
1.0
 22
0.0
 32
0.0
 13
1.0
 23
0.0
 33
0.0
 40
0.0
 40
0.0
 40
0.0
 40
0.0
 40
0.0624160261588188
 40
0.1233369785373325
 40
0.1832651398530973
 40
0.2431724430697103
 40
0.3028983539197498
 40
0.3637735975039122
 40
0.4256053049523831
 40
0.4896590425101834
 40
0.5537845767921161
 40
0.6162215328110738
 40
0.6778544713083441
 40
0.7395168974879391
 40
0.8020965355763728
 40
0.8658658412779712
 40
0.9315077951965118
 40
0.9999999999999999
 40
0.9999999999999999
 40
0.9999999999999999
 40
0.9999999999999999
 10
74.62972871666912
 20
157.757834085617
 30
0.0
 10
74.62874737935122
 20
157.7145340279394
 30
0.0
 10
74.62680821104519
 20
157.6289710946172
 30
0.0
 10
74.60846459465414
 20
157.5029517288287
 30
0.0
 10
74.57993350877688
 20
157.3807569061434
 30
0.0
 10
74.53910167059783
 20
157.2628982123908
 30
0.0
 10
74.48674356133428
 20
157.1490153849794
 30
0.0
 10
74.4228528738007
 20
157.0396058356905
 30
0.0
 10
74.34698125664899
 20
156.9344537024174
 30
0.0
 10
74.26097725989058
 20
156.8344518641649
 30
0.0
 10
74.16592538373921
 20
156.7422856493715
 30
0.0
 10
74.06280923542012
 20
156.6619573798181
 30
0.0
 10
73.95365520166922
 20
156.5931358554498
 30
0.0
 10
73.83701184839451
 20
156.537699439835
 30
0.0
 10
73.71394436156278
 20
156.4939897395235
 30
0.0
 10
73.58418729345772
 20
156.4632897230931
 30
0.0
 10
73.4479422231445
 20
156.4447280393167
 30
0.0
 10
73.3549150017783
 20
156.4423444660558
 30
0.0
 10
73.30741301154092
 20
156.4411273548478
 30
0.0
  0
SPLINE
  5
EA
330
1F
100
AcDbEntity
  8
0
  6
Continuous
 62
     7
370
    15
100
AcDbSpline
210
0.0
220
0.0
230
1.0
 70
     8
 71
     3
 72
    15
 73
    11
 74
     0
 42
0.00000001
 43
0.00000001
 12
1.0
 22
0.0
 32
0.0
 13
1.0
 23
0.0
 33
0.0
 40
0.0
 40
0.0
 40
0.0
 40
0.0
 40
0.1281572795931858
 40
0.2538343627967343
 40
0.3765056225222053
 40
0.4985336856679141
 40
0.6213677287324616
 40
0.744564744904363
 40
0.8706337982552933
 40
1.0
 40
1.0
 40
1.0
 40
1.0
 10
74.27916781923324
 20
158.6671890535658
 30
0.0
 10
74.30714977329818
 20
158.6349750677763
 30
0.0
 10
74.3625721535362
 20
158.5711705255611
 30
0.0
 10
74.43363787232558
 20
158.4677149125986
 30
0.0
 10
74.49485943248301
 20
158.360574812007
 30
0.0
 10
74.54392239346969
 20
158.2483274853357
 30
0.0
 10
74.5826074171549
 20
158.1319528141821
 30
0.0
 10
74.61007311341021
 20
158.0110508030234
 30
0.0
 10
74.62641004835062
 20
157.8858884558598
 30
0.0
 10
74.62861301529226
 20
157.8008846177827
 30
0.0
 10
74.62972871666912
 20
157.757834085617
 30
0.0
  0
SPLINE
  5
EB
330
1F
100
AcDbEntity
  8
0
  6
Continuous
 62
     7
370
    15
100
AcDbSpline
210
0.0
220
0.0
230
1.0
 70
     8
 71
     3
 72
    15
 73
    11
 74
     0
 42
0.00000001
 43
0.00000001
 12
1.0
 22
0.0
 32
0.0
 13
1.0
 23
0.0
 33
0.0
 40
0.0
 40
0.0
 40
0.0
 40
0.0
 40
0.1317514273024062
 40
0.2583323505141564
 40
0.3821339760925452
 40
0.5038043916000862
 40
0.6246929865409311
 40
0.7468705897275792
 40
0.8715135042348189
 40
1.0
 40
1.0
 40
1.0
 40
1.0
 10
73.30741301154092
 20
159.0885632522837
 30
0.0
 10
73.35540428438418
 20
159.0875413611449
 30
0.0
 10
73.4495034419539
 20
159.0855376823592
 30
0.0
 10
73.58731132783323
 20
159.0641227167066
 30
0.0
 10
73.71885646376955
 20
159.031375352321
 30
0.0
 10
73.84464265593307
 20
158.9861037902465
 30
0.0
 10
73.96305895138583
 20
158.9254218396999
 30
0.0
 10
74.07583019549378
 20
158.8530125485744
 30
0.0
 10
74.1826472043787
 20
158.7672299550101
 30
0.0
 10
74.2466702336359
 20
158.7008718866354
 30
0.0
 10
74.27916781923324
 20
158.6671890535658
 30
0.0
  0
SPLINE
  5
EC
330
1F
100
AcDbEntity
  8
0
  6
Continuous
 62
     7
370
    15
100
AcDbSpline
210
0.0
220
0.0
230
1.0
 70
     8
 71
     3
 72
    15
 73
    11
 74
     0
 42
0.00000001
 43
0.00000001
 12
1.0
 22
0.0
 32
0.0
 13
1.0
 23
0.0
 33
0.0
 40
0.0
 40
0.0
 40
0.0
 40
0.0
 40
0.1284975211375114
 40
0.2527129855154524
 40
0.3748191325670475
 40
0.4964364263727305
 40
0.6179105567458524
 40
0.741287617309292
 40
0.868700400744609
 40
1.0
 40
1.0
 40
1.0
 40
1.0
 10
72.33285371666912
 20
158.6650856881812
 30
0.0
 10
72.36530230769516
 20
158.6990606274347
 30
0.0
 10
72.42911817154501
 20
158.7658783236475
 30
0.0
 10
72.53646689927321
 20
158.8514108477344
 30
0.0
 10
72.64896072038368
 20
158.9253269215953
 30
0.0
 10
72.76868564652119
 20
158.9848031370479
 30
0.0
 10
72.89436850447697
 20
159.0316416547743
 30
0.0
 10
73.02658774700485
 20
159.0642071698892
 30
0.0
 10
73.16486326246437
 20
159.0854605248582
 30
0.0
 10
73.25942288355994
 20
159.0875187026636
 30
0.0
 10
73.30741301154092
 20
159.0885632522837
 30
0.0
  0
SPLINE
  5
ED
330
1F
100
AcDbEntity
  8
0
  6
Continuous
 62
     7
370
    15
100
AcDbSpline
210
0.0
220
0.0
230
1.0
 70
     8
 71
     3
 72
    23
 73
    19
 74
     0
 42
0.00000001
 43
0.00000001
 12
1.0
 22
0.0
 32
0.0
 13
1.0
 23
0.0
 33
0.0
 40
0.0
 40
0.0
 40
0.0
 40
0.0
 40
0.0683846151037665
 40
0.1344755875434485
 40
0.1983910577839544
 40
0.2607534774484859
 40
0.3218292228076502
 40
0.3830372384795206
 40
0.444653123106426
 40
0.5073980112040009
 40
0.5698252379730252
 40
0.6307776406313139
 40
0.6909286865237168
 40
0.7509451326917367
 40
0.8110494767293261
 40
0.872330852546994
 40
0.935004093589406
 40
1.0
 40
1.0
 40
1.0
 40
1.0
 10
76.91819025513067
 20
157.6975376112581
 30
0.0
 10
76.91972986155982
 20
157.663837147011
 30
0.0
 10
76.92275743550802
 20
157.5975665432613
 30
0.0
 10
76.93687257867444
 20
157.5005957601788
 30
0.0
 10
76.95912135244868
 20
157.4082224180152
 30
0.0
 10
76.99039041508718
 20
157.3211393760417
 30
0.0
 10
77.02825726034207
 20
157.2382092485264
 30
0.0
 10
77.07464297712802
 20
157.1600472115578
 30
0.0
 10
77.1299825310805
 20
157.0870092815079
 30
0.0
 10
77.19170823046488
 20
157.0184421439147
 30
0.0
 10
77.26041532580047
 20
156.957381382747
 30
0.0
 10
77.33269807302167
 20
156.9027296065128
 30
0.0
 10
77.40959163801087
 20
156.8569240097834
 30
0.0
 10
77.49048972150483
 20
156.81974412003
 30
0.0
 10
77.575261506649
 20
156.7906378039709
 30
0.0
 10
77.66393370176473
 20
156.7707699832879
 30
0.0
 10
77.75633181811949
 20
156.7574628764131
 30
0.0
 10
77.81931755215226
 20
156.7559832112126
 30
0.0
 10
77.85138336410502
 20
156.7552299189504
 30
0.0
  0
LINE
  5
EE
330
1F
100
AcDbEntity
  8
0
  6
Continuous
 62
     7
370
    15
100
AcDbLine
 10
79.2066515458
 20
157.6975357457
 30
0.0
 11
76.9181908143
 21
157.6975357457
 31
0.0
  0
SPLINE
  5
EF
330
1F
100
AcDbEntity
  8
0
  6
Continuous
 62
     7
370
    15
100
AcDbSpline
210
0.0
220
0.0
230
1.0
 70
     8
 71
     3
 72
    15
 73
    11
 74
     0
 42
0.00000001
 43
0.00000001
 12
1.0
 22
0.0
 32
0.0
 13
1.0
 23
0.0
 33
0.0
 40
0.0
 40
0.0
 40
0.0
 40
0.0
 40
0.1185218400132601
 40
0.2362547631617455
 40
0.3561744339909274
 40
0.4772496548985494
 40
0.6015398708217022
 40
0.7296183821680345
 40
0.8621582661414354
 40
0.9999999999999999
 40
0.9999999999999999
 40
0.9999999999999999
 40
0.9999999999999999
 10
78.9283064410281
 20
158.5851578035658
 30
0.0
 10
78.95043337934058
 20
158.5549542221795
 30
0.0
 10
78.99453997243707
 20
158.4947481034907
 30
0.0
 10
79.0497870724722
 20
158.39657694639
 30
0.0
 10
79.09774446745588
 20
158.2938663520398
 30
0.0
 10
79.13607742847064
 20
158.1849560549528
 30
0.0
 10
79.16711692966719
 20
158.0711364747799
 30
0.0
 10
79.18957374840738
 20
157.9515939300656
 30
0.0
 10
79.20274336698922
 20
157.8263640187048
 30
0.0
 10
79.20533206433767
 20
157.7410374632281
 30
0.0
 10
79.2066517935922
 20
157.6975376112581
 30
0.0
  0
SPLINE
  5
F0
330
1F
100
AcDbEntity
  8
0
  6
Continuous
 62
     7
370
    15
100
AcDbSpline
210
0.0
220
0.0
230
1.0
 70
     8
 71
     3
 72
    15
 73
    11
 74
     0
 42
0.00000001
 43
0.00000001
 12
1.0
 22
0.0
 32
0.0
 13
1.0
 23
0.0
 33
0.0
 40
0.0
 40
0.0
 40
0.0
 40
0.0
 40
0.1320402344259819
 40
0.2590328407793685
 40
0.3818798239250146
 40
0.5022584437149833
 40
0.6227521895274767
 40
0.7447426318589991
 40
0.870108927341815
 40
1.0
 40
1.0
 40
1.0
 40
1.0
 10
77.89835852436143
 20
159.0885632522837
 30
0.0
 10
77.95080612966511
 20
159.0872092033912
 30
0.0
 10
78.05369637560378
 20
159.0845528681257
 30
0.0
 10
78.20372849664058
 20
159.0599265347166
 30
0.0
 10
78.34568921318116
 20
159.0208739801532
 30
0.0
 10
78.47952171748999
 20
158.9657201896527
 30
0.0
 10
78.60523957824282
 20
158.8945606378623
 30
0.0
 10
78.7220256278175
 20
158.8064187963814
 30
0.0
 10
78.83187714036627
 20
158.7040007091563
 30
0.0
 10
78.89578571921845
 20
158.625237499729
 30
0.0
 10
78.9283064410281
 20
158.5851578035658
 30
0.0
  0
SPLINE
  5
F1
330
1F
100
AcDbEntity
  8
0
  6
Continuous
 62
     7
370
    15
100
AcDbSpline
210
0.0
220
0.0
230
1.0
 70
     8
 71
     3
 72
    15
 73
    11
 74
     0
 42
0.00000001
 43
0.00000001
 12
1.0
 22
0.0
 32
0.0
 13
1.0
 23
0.0
 33
0.0
 40
0.0
 40
0.0
 40
0.0
 40
0.0
 40
0.12883525448755
 40
0.253589334986479
 40
0.3746432573141678
 40
0.4953400422377945
 40
0.6163247746357922
 40
0.7397593354405171
 40
0.8668423203805465
 40
1.0
 40
1.0
 40
1.0
 40
1.0
 10
76.89855884487424
 20
158.6118004317709
 30
0.0
 10
76.93026652765009
 20
158.6496693018589
 30
0.0
 10
76.99267747425834
 20
158.7242074523094
 30
0.0
 10
77.0982338296122
 20
158.8221457780911
 30
0.0
 10
77.2125340259546
 20
158.9041895532681
 30
0.0
 10
77.33414565205474
 20
158.9721966894064
 30
0.0
 10
77.46448212611534
 20
159.0238703363991
 30
0.0
 10
77.60179141715292
 20
159.0623779186314
 30
0.0
 10
77.74763700337955
 20
159.0839559296647
 30
0.0
 10
77.84734222421774
 20
159.0870037632867
 30
0.0
 10
77.89835852436143
 20
159.0885632522837
 30
0.0
  0
SPLINE
  5
F2
330
1F
100
AcDbEntity
  8
0
  6
Continuous
 62
     7
370
    15
100
AcDbSpline
210
0.0
220
0.0
230
1.0
 70
     8
 71
     3
 72
    15
 73
    11
 74
     0
 42
0.00000001
 43
0.00000001
 12
1.0
 22
0.0
 32
0.0
 13
1.0
 23
0.0
 33
0.0
 40
0.0
 40
0.0
 40
0.0
 40
0.0
 40
0.1280448079611128
 40
0.2537679000244909
 40
0.3774284265812972
 40
0.5005508414825247
 40
0.6232958832424783
 40
0.7465783319335089
 40
0.8723475406047165
 40
1.0
 40
1.0
 40
1.0
 40
1.0
 10
76.6040876910281
 20
157.757834085617
 30
0.0
 10
76.6051468323587
 20
157.7971289160346
 30
0.0
 10
76.60724591060774
 20
157.8750060807215
 30
0.0
 10
76.62047669800143
 20
157.9902716252518
 30
0.0
 10
76.64392499106944
 20
158.1023000777803
 30
0.0
 10
76.67610131501857
 20
158.2111845257492
 30
0.0
 10
76.7176525612018
 20
158.3167426597333
 30
0.0
 10
76.76848478041804
 20
158.4190387233565
 30
0.0
 10
76.82867715820682
 20
158.5179638632169
 30
0.0
 10
76.87514983196328
 20
158.5803669969247
 30
0.0
 10
76.89855884487424
 20
158.6118004317709
 30
0.0
  0
SPLINE
  5
F3
330
1F
100
AcDbEntity
  8
0
  6
Continuous
 62
     7
370
    15
100
AcDbSpline
210
0.0
220
0.0
230
1.0
 70
     8
 71
     3
 72
    23
 73
    19
 74
     0
 42
0.00000001
 43
0.00000001
 12
1.0
 22
0.0
 32
0.0
 13
1.0
 23
0.0
 33
0.0
 40
0.0
 40
0.0
 40
0.0
 40
0.0
 40
0.071578657689142
 40
0.1396292246928482
 40
0.2047966973966643
 40
0.2681349633966806
 40
0.3298137469867285
 40
0.3913013977745595
 40
0.4534335150970536
 40
0.5165516903197663
 40
0.5796312707049216
 40
0.6411189214927493
 40
0.7012940466987742
 40
0.7608103356761305
 40
0.8199317217781441
 40
0.8789195754993785
 40
0.9389828222504449
 40
1.0
 40
1.0
 40
1.0
 40
1.0
 10
77.89064618461784
 20
156.4411273548478
 30
0.0
 10
77.8415042070824
 20
156.4422745301774
 30
0.0
 10
77.74564244542509
 20
156.4445123369068
 30
0.0
 10
77.60610269831223
 20
156.4638048013412
 30
0.0
 10
77.4747232799147
 20
156.4952771600349
 30
0.0
 10
77.3515115765611
 20
156.5392427015262
 30
0.0
 10
77.23676932398355
 20
156.5966700256165
 30
0.0
 10
77.13026846917163
 20
156.6666295074202
 30
0.0
 10
77.03144894330266
 20
156.7487617621088
 30
0.0
 10
76.9434247341175
 20
156.8437782055957
 30
0.0
 10
76.86418085140706
 20
156.9454601628911
 30
0.0
 10
76.79425503143136
 20
157.051416047377
 30
0.0
 10
76.73579760038194
 20
157.161379271851
 30
0.0
 10
76.6882449901862
 20
157.2746497958945
 30
0.0
 10
76.6498401252164
 20
157.3905136894377
 30
0.0
 10
76.62307342144727
 20
157.5100251570069
 30
0.0
 10
76.60764367346523
 20
157.632860741247
 30
0.0
 10
76.60527922792787
 20
157.7159580769648
 30
0.0
 10
76.6040876910281
 20
157.7578340856171
 30
0.0
  0
SPLINE
  5
F4
330
1F
100
AcDbEntity
  8
0
  6
Continuous
 62
     7
370
    15
100
AcDbSpline
210
0.0
220
0.0
230
1.0
 70
     8
 71
     3
 72
    19
 73
    15
 74
     0
 42
0.00000001
 43
0.00000001
 12
1.0
 22
0.0
 32
0.0
 13
1.0
 23
0.0
 33
0.0
 40
0.0
 40
0.0
 40
0.0
 40
0.0
 40
0.0933698567361912
 40
0.181660766070998
 40
0.2658742270426198
 40
0.3463547840343038
 40
0.4245998617178932
 40
0.5019031838373746
 40
0.5799920909873456
 40
0.6584434305294294
 40
0.7386722364878342
 40
0.8218941484362445
 40
0.908800792046616
 40
1.0
 40
1.0
 40
1.0
 40
1.0
 10
79.07203640897681
 20
157.1471570022837
 30
0.0
 10
79.04979981373684
 20
157.1077136710084
 30
0.0
 10
79.00653620525216
 20
157.0309725681907
 30
0.0
 10
78.93213545736138
 20
156.9255407077186
 30
0.0
 10
78.85414338478321
 20
156.8306929918799
 30
0.0
 10
78.76903941677962
 20
156.748963337596
 30
0.0
 10
78.67936973782562
 20
156.6777119526218
 30
0.0
 10
78.58463708303995
 20
156.6153741279028
 30
0.0
 10
78.48434826530459
 20
156.562255607557
 30
0.0
 10
78.37849854052634
 20
156.5175030796843
 30
0.0
 10
78.26619898938483
 20
156.4830935855763
 30
0.0
 10
78.1471774729748
 20
156.4587893646553
 30
0.0
 10
78.021205977596
 20
156.4437660960049
 30
0.0
 10
77.93485979772825
 20
156.4420209552278
 30
0.0
 10
77.89064618461784
 20
156.4411273548478
 30
0.0
  0
LINE
  5
F5
330
1F
100
AcDbEntity
  8
0
  6
Continuous
 62
     7
370
    15
100
AcDbLine
 10
78.7929897231
 20
157.2936919256
 30
0.0
 11
79.0720363182
 21
157.1471539064
 31
0.0
  0
SPLINE
  5
F6
330
1F
100
AcDbEntity
  8
0
  6
Continuous
 62
     7
370
    15
100
AcDbSpline
210
0.0
220
0.0
230
1.0
 70
     8
 71
     3
 72
    19
 73
    15
 74
     0
 42
0.00000001
 43
0.00000001
 12
1.0
 22
0.0
 32
0.0
 13
1.0
 23
0.0
 33
0.0
 40
0.0
 40
0.0
 40
0.0
 40
0.0
 40
0.0825922633314394
 40
0.1638788940984971
 40
0.2456587396295056
 40
0.3277256953541238
 40
0.4086099609103239
 40
0.485749085953937
 40
0.5591690561972847
 40
0.6302684758575511
 40
0.7053060284320753
 40
0.7920649660966087
 40
0.8897964374100916
 40
1.0
 40
1.0
 40
1.0
 40
1.0
 10
77.85138336410502
 20
156.7552299189504
 30
0.0
 10
77.88273451170905
 20
156.7558379756103
 30
0.0
 10
77.94494120263658
 20
156.7570444766669
 30
0.0
 10
78.03758205997966
 20
156.7687763875778
 30
0.0
 10
78.1287215873792
 20
156.787746663199
 30
0.0
 10
78.21798257064641
 20
156.8136366532826
 30
0.0
 10
78.30355341656312
 20
156.8452135053894
 30
0.0
 10
78.38279896662434
 20
156.8833163630384
 30
0.0
 10
78.45567918225048
 20
156.9254661097814
 30
0.0
 10
78.52379614883675
 20
156.9736757848298
 30
0.0
 10
78.58986714218881
 20
157.0326839718328
 30
0.0
 10
78.65540962860354
 20
157.1063196928214
 30
0.0
 10
78.72568628196682
 20
157.193407220605
 30
0.0
 10
78.76967587471059
 20
157.2589528865829
 30
0.0
 10
78.79298993461784
 20
157.2936914574119
 30
0.0
  0
SPLINE
  5
F7
330
1F
100
AcDbEntity
  8
0
  6
Continuous
 62
     7
370
    15
100
AcDbSpline
210
0.0
220
0.0
230
1.0
 70
     8
 71
     3
 72
    15
 73
    11
 74
     0
 42
0.00000001
 43
0.00000001
 12
1.0
 22
0.0
 32
0.0
 13
1.0
 23
0.0
 33
0.0
 40
0.0
 40
0.0
 40
0.0
 40
0.0
 40
0.1277566033101295
 40
0.2494143553365239
 40
0.3727964764554024
 40
0.500111332515867
 40
0.6286099407651193
 40
0.7506433738258156
 40
0.8737683791425223
 40
0.9999999999999999
 40
0.9999999999999999
 40
0.9999999999999999
 40
0.9999999999999999
 10
81.15857487051528
 20
156.4411273548478
 30
0.0
 10
81.1390489648634
 20
156.4421709520233
 30
0.0
 10
81.10092928224546
 20
156.4442083270788
 30
0.0
 10
81.0461432880153
 20
156.4613711333571
 30
0.0
 10
80.99573631943656
 20
156.4881945936009
 30
0.0
 10
80.9509486076996
 20
156.5254615030835
 30
0.0
 10
80.91441013611144
 20
156.5704616464792
 30
0.0
 10
80.88678475325847
 20
156.6206634429111
 30
0.0
 10
80.87019460430552
 20
156.675444880326
 30
0.0
 10
80.86801273163867
 20
156.7135195231663
 30
0.0
 10
80.86690820384862
 20
156.7327940215145
 30
0.0
  0
SPLINE
  5
F8
330
1F
100
AcDbEntity
  8
0
  6
Continuous
 62
     7
370
    15
100
AcDbSpline
210
0.0
220
0.0
230
1.0
 70
     8
 71
     3
 72
    15
 73
    11
 74
     0
 42
0.00000001
 43
0.00000001
 12
1.0
 22
0.0
 32
0.0
 13
1.0
 23
0.0
 33
0.0
 40
0.0
 40
0.0
 40
0.0
 40
0.0
 40
0.1261777183169971
 40
0.2488206074857829
 40
0.371539969235143
 40
0.4999837069108743
 40
0.6272441978753666
 40
0.7492255210762667
 40
0.8722979504176521
 40
1.0
 40
1.0
 40
1.0
 40
1.0
 10
81.45024153718194
 20
156.7327940215145
 30
0.0
 10
81.44904593643646
 20
156.713550691752
 30
0.0
 10
81.44668822932486
 20
156.6756031280663
 30
0.0
 10
81.43142562119588
 20
156.6203216654423
 30
0.0
 10
81.40252757096584
 20
156.5706947609723
 30
0.0
 10
81.36629257804353
 20
156.525392622844
 30
0.0
 10
81.32149614448532
 20
156.4884517522358
 30
0.0
 10
81.2713942980626
 20
156.4610284075034
 30
0.0
 10
81.21640303990552
 20
156.4443364275941
 30
0.0
 10
81.1780867165573
 20
156.442210130492
 30
0.0
 10
81.15857487051528
 20
156.4411273548478
 30
0.0
  0
SPLINE
  5
F9
330
1F
100
AcDbEntity
  8
0
  6
Continuous
 62
     7
370
    15
100
AcDbSpline
210
0.0
220
0.0
230
1.0
 70
     8
 71
     3
 72
    15
 73
    11
 74
     0
 42
0.00000001
 43
0.00000001
 12
1.0
 22
0.0
 32
0.0
 13
1.0
 23
0.0
 33
0.0
 40
0.0
 40
0.0
 40
0.0
 40
0.0
 40
0.1275189266999404
 40
0.2499859477488088
 40
0.3717923515057427
 40
0.4988703527764654
 40
0.6259483540471833
 40
0.7484917380160437
 40
0.8709587590648986
 40
1.0
 40
1.0
 40
1.0
 40
1.0
 10
81.15857487051528
 20
157.0244606881812
 30
0.0
 10
81.17806508268825
 20
157.0233025214947
 30
0.0
 10
81.2162733650819
 20
157.0210320711055
 30
0.0
 10
81.27151249339782
 20
157.0054553973455
 30
0.0
 10
81.32150715311133
 20
156.9777967368739
 30
0.0
 10
81.36603939789804
 20
156.9409339585121
 30
0.0
 10
81.40274587442228
 20
156.8962382953816
 30
0.0
 10
81.43139022655009
 20
156.8466423866454
 30
0.0
 10
81.44683121176206
 20
156.7909407940664
 30
0.0
 10
81.44908512357269
 20
156.7525111191034
 30
0.0
 10
81.45024153718194
 20
156.7327940215145
 30
0.0
  0
SPLINE
  5
FA
330
1F
100
AcDbEntity
  8
0
  6
Continuous
 62
     7
370
    15
100
AcDbSpline
210
0.0
220
0.0
230
1.0
 70
     8
 71
     3
 72
    15
 73
    11
 74
     0
 42
0.00000001
 43
0.00000001
 12
1.0
 22
0.0
 32
0.0
 13
1.0
 23
0.0
 33
0.0
 40
0.0
 40
0.0
 40
0.0
 40
0.0
 40
0.129096958167244
 40
0.252045967259993
 40
0.3739049644020061
 40
0.5010378352202097
 40
0.6281707060384182
 40
0.751376463409196
 40
0.8724260133704579
 40
1.0
 40
1.0
 40
1.0
 40
1.0
 10
80.86690820384862
 20
156.7327940215145
 30
0.0
 10
80.86797030310409
 20
156.7525434011623
 30
0.0
 10
80.87004392155315
 20
156.791101641161
 30
0.0
 10
80.88681958180494
 20
156.8463007486383
 30
0.0
 10
80.91419579370971
 20
156.8964691878884
 30
0.0
 10
80.95120118870186
 20
156.940865768012
 30
0.0
 10
80.99572548459035
 20
156.9780530706778
 30
0.0
 10
81.04602168976835
 20
157.0051178638174
 30
0.0
 10
81.10106123007235
 20
157.0211582760031
 30
0.0
 10
81.13907116848642
 20
157.0233407927511
 30
0.0
 10
81.15857487051528
 20
157.0244606881812
 30
0.0
  0
SPLINE
  5
FB
330
1F
100
AcDbEntity
  8
0
  6
Continuous
 62
     7
370
    15
100
AcDbSpline
210
0.0
220
0.0
230
1.0
 70
     8
 71
     3
 72
    23
 73
    19
 74
     0
 42
0.00000001
 43
0.00000001
 12
1.0
 22
0.0
 32
0.0
 13
1.0
 23
0.0
 33
0.0
 40
0.0
 40
0.0
 40
0.0
 40
0.0
 40
0.0683846151037665
 40
0.1344755875434485
 40
0.1983910577839544
 40
0.2607534774484859
 40
0.3218292228076502
 40
0.3830372384795206
 40
0.444653123106426
 40
0.5073980112040009
 40
0.5698252379730252
 40
0.6307776406313139
 40
0.6909286865237168
 40
0.7509451326917367
 40
0.8110494767293261
 40
0.872330852546994
 40
0.935004093589406
 40
1.0
 40
1.0
 40
1.0
 40
1.0
 10
85.3092158961563
 20
157.6975376112581
 30
0.0
 10
85.31075550258547
 20
157.663837147011
 30
0.0
 10
85.31378307653367
 20
157.5975665432613
 30
0.0
 10
85.32789821970009
 20
157.5005957601788
 30
0.0
 10
85.35014699347433
 20
157.4082224180152
 30
0.0
 10
85.38141605611283
 20
157.3211393760417
 30
0.0
 10
85.41928290136772
 20
157.2382092485264
 30
0.0
 10
85.46566861815366
 20
157.1600472115578
 30
0.0
 10
85.52100817210615
 20
157.0870092815079
 30
0.0
 10
85.58273387149055
 20
157.0184421439147
 30
0.0
 10
85.65144096682612
 20
156.957381382747
 30
0.0
 10
85.72372371404732
 20
156.9027296065128
 30
0.0
 10
85.80061727903652
 20
156.8569240097834
 30
0.0
 10
85.88151536253046
 20
156.81974412003
 30
0.0
 10
85.96628714767463
 20
156.7906378039709
 30
0.0
 10
86.05495934279038
 20
156.7707699832879
 30
0.0
 10
86.14735745914513
 20
156.7574628764131
 30
0.0
 10
86.21034319317792
 20
156.7559832112126
 30
0.0
 10
86.24240900513067
 20
156.7552299189504
 30
0.0
  0
LINE
  5
FC
330
1F
100
AcDbEntity
  8
0
  6
Continuous
 62
     7
370
    15
100
AcDbLine
 10
87.5976779533
 20
157.6975357457
 30
0.0
 11
85.3092153591
 21
157.6975357457
 31
0.0
  0
SPLINE
  5
FD
330
1F
100
AcDbEntity
  8
0
  6
Continuous
 62
     7
370
    15
100
AcDbSpline
210
0.0
220
0.0
230
1.0
 70
     8
 71
     3
 72
    15
 73
    11
 74
     0
 42
0.00000001
 43
0.00000001
 12
1.0
 22
0.0
 32
0.0
 13
1.0
 23
0.0
 33
0.0
 40
0.0
 40
0.0
 40
0.0
 40
0.0
 40
0.11852184001326
 40
0.2362547631617454
 40
0.3561744339909274
 40
0.4772496548985506
 40
0.6015398708217023
 40
0.7296183821680347
 40
0.8621582661414354
 40
0.9999999999999999
 40
0.9999999999999999
 40
0.9999999999999999
 40
0.9999999999999999
 10
87.31933208205375
 20
158.5851578035658
 30
0.0
 10
87.34145902036623
 20
158.5549542221795
 30
0.0
 10
87.3855656134627
 20
158.4947481034906
 30
0.0
 10
87.44081271349786
 20
158.3965769463901
 30
0.0
 10
87.48877010848152
 20
158.2938663520398
 30
0.0
 10
87.5271030694963
 20
158.1849560549529
 30
0.0
 10
87.55814257069285
 20
158.0711364747799
 30
0.0
 10
87.58059938943302
 20
157.9515939300656
 30
0.0
 10
87.59376900801489
 20
157.8263640187048
 30
0.0
 10
87.5963577053633
 20
157.7410374632281
 30
0.0
 10
87.59767743461785
 20
157.6975376112581
 30
0.0
  0
SPLINE
  5
FE
330
1F
100
AcDbEntity
  8
0
  6
Continuous
 62
     7
370
    15
100
AcDbSpline
210
0.0
220
0.0
230
1.0
 70
     8
 71
     3
 72
    15
 73
    11
 74
     0
 42
0.00000001
 43
0.00000001
 12
1.0
 22
0.0
 32
0.0
 13
1.0
 23
0.0
 33
0.0
 40
0.0
 40
0.0
 40
0.0
 40
0.0
 40
0.1320402344259818
 40
0.2590328407793684
 40
0.3818798239250144
 40
0.502258443714983
 40
0.6227521895274789
 40
0.7447426318590012
 40
0.870108927341815
 40
1.0
 40
1.0
 40
1.0
 40
1.0
 10
86.28938416538708
 20
159.0885632522837
 30
0.0
 10
86.34183177069077
 20
159.0872092033912
 30
0.0
 10
86.44472201662943
 20
159.0845528681257
 30
0.0
 10
86.59475413766623
 20
159.0599265347167
 30
0.0
 10
86.73671485420681
 20
159.0208739801532
 30
0.0
 10
86.87054735851564
 20
158.9657201896527
 30
0.0
 10
86.99626521926845
 20
158.8945606378623
 30
0.0
 10
87.11305126884315
 20
158.8064187963814
 30
0.0
 10
87.22290278139191
 20
158.7040007091563
 30
0.0
 10
87.2868113602441
 20
158.625237499729
 30
0.0
 10
87.31933208205375
 20
158.5851578035658
 30
0.0
  0
SPLINE
  5
FF
330
1F
100
AcDbEntity
  8
0
  6
Continuous
 62
     7
370
    15
100
AcDbSpline
210
0.0
220
0.0
230
1.0
 70
     8
 71
     3
 72
    15
 73
    11
 74
     0
 42
0.00000001
 43
0.00000001
 12
1.0
 22
0.0
 32
0.0
 13
1.0
 23
0.0
 33
0.0
 40
0.0
 40
0.0
 40
0.0
 40
0.0
 40
0.12883525448755
 40
0.253589334986479
 40
0.3746432573141678
 40
0.4953400422377945
 40
0.6163247746357922
 40
0.7397593354405171
 40
0.8668423203805465
 40
1.0
 40
1.0
 40
1.0
 40
1.0
 10
85.28958448589991
 20
158.6118004317709
 30
0.0
 10
85.32129216867574
 20
158.6496693018589
 30
0.0
 10
85.383703115284
 20
158.7242074523094
 30
0.0
 10
85.48925947063786
 20
158.8221457780911
 30
0.0
 10
85.60355966698025
 20
158.9041895532681
 30
0.0
 10
85.72517129308041
 20
158.9721966894064
 30
0.0
 10
85.85550776714099
 20
159.0238703363991
 30
0.0
 10
85.99281705817857
 20
159.0623779186314
 30
0.0
 10
86.1386626444052
 20
159.0839559296647
 30
0.0
 10
86.23836786524339
 20
159.0870037632867
 30
0.0
 10
86.28938416538708
 20
159.0885632522837
 30
0.0
  0
SPLINE
  5
100
330
1F
100
AcDbEntity
  8
0
  6
Continuous
 62
     7
370
    15
100
AcDbSpline
210
0.0
220
0.0
230
1.0
 70
     8
 71
     3
 72
    15
 73
    11
 74
     0
 42
0.00000001
 43
0.00000001
 12
1.0
 22
0.0
 32
0.0
 13
1.0
 23
0.0
 33
0.0
 40
0.0
 40
0.0
 40
0.0
 40
0.0
 40
0.1280448079611128
 40
0.2537679000244909
 40
0.3774284265812972
 40
0.5005508414825247
 40
0.6232958832424783
 40
0.7465783319335089
 40
0.8723475406047165
 40
1.0
 40
1.0
 40
1.0
 40
1.0
 10
84.99511333205375
 20
157.757834085617
 30
0.0
 10
84.99617247338433
 20
157.7971289160346
 30
0.0
 10
84.9982715516334
 20
157.8750060807215
 30
0.0
 10
85.01150233902707
 20
157.9902716252518
 30
0.0
 10
85.03495063209509
 20
158.1023000777803
 30
0.0
 10
85.06712695604422
 20
158.2111845257492
 30
0.0
 10
85.10867820222745
 20
158.3167426597333
 30
0.0
 10
85.1595104214437
 20
158.4190387233565
 30
0.0
 10
85.21970279923246
 20
158.5179638632169
 30
0.0
 10
85.26617547298892
 20
158.5803669969247
 30
0.0
 10
85.28958448589991
 20
158.6118004317709
 30
0.0
  0
SPLINE
  5
101
330
1F
100
AcDbEntity
  8
0
  6
Continuous
 62
     7
370
    15
100
AcDbSpline
210
0.0
220
0.0
230
1.0
 70
     8
 71
     3
 72
    23
 73
    19
 74
     0
 42
0.00000001
 43
0.00000001
 12
1.0
 22
0.0
 32
0.0
 13
1.0
 23
0.0
 33
0.0
 40
0.0
 40
0.0
 40
0.0
 40
0.0
 40
0.071578657689142
 40
0.1396292246928482
 40
0.2047966973966643
 40
0.2681349633966806
 40
0.3298137469867285
 40
0.3913013977745595
 40
0.4534335150970536
 40
0.5165516903197663
 40
0.5796312707049216
 40
0.6411189214927493
 40
0.7012940466987742
 40
0.7608103356761305
 40
0.8199317217781441
 40
0.8789195754993785
 40
0.9389828222504449
 40
1.0
 40
1.0
 40
1.0
 40
1.0
 10
86.28167182564349
 20
156.4411273548478
 30
0.0
 10
86.23252984810804
 20
156.4422745301774
 30
0.0
 10
86.13666808645074
 20
156.4445123369068
 30
0.0
 10
85.99712833933786
 20
156.4638048013412
 30
0.0
 10
85.86574892094036
 20
156.4952771600349
 30
0.0
 10
85.74253721758673
 20
156.5392427015262
 30
0.0
 10
85.6277949650092
 20
156.5966700256165
 30
0.0
 10
85.52129411019726
 20
156.6666295074202
 30
0.0
 10
85.42247458432831
 20
156.7487617621088
 30
0.0
 10
85.33445037514315
 20
156.8437782055957
 30
0.0
 10
85.25520649243272
 20
156.9454601628911
 30
0.0
 10
85.18528067245701
 20
157.051416047377
 30
0.0
 10
85.12682324140759
 20
157.161379271851
 30
0.0
 10
85.07927063121184
 20
157.2746497958945
 30
0.0
 10
85.04086576624206
 20
157.3905136894377
 30
0.0
 10
85.01409906247292
 20
157.5100251570069
 30
0.0
 10
84.99866931449088
 20
157.632860741247
 30
0.0
 10
84.99630486895352
 20
157.7159580769648
 30
0.0
 10
84.99511333205375
 20
157.7578340856171
 30
0.0
  0
SPLINE
  5
102
330
1F
100
AcDbEntity
  8
0
  6
Continuous
 62
     7
370
    15
100
AcDbSpline
210
0.0
220
0.0
230
1.0
 70
     8
 71
     3
 72
    19
 73
    15
 74
     0
 42
0.00000001
 43
0.00000001
 12
1.0
 22
0.0
 32
0.0
 13
1.0
 23
0.0
 33
0.0
 40
0.0
 40
0.0
 40
0.0
 40
0.0
 40
0.0933698567361912
 40
0.181660766070998
 40
0.2658742270426198
 40
0.3463547840343038
 40
0.4245998617178932
 40
0.5019031838373746
 40
0.5799920909873456
 40
0.6584434305294294
 40
0.7386722364878342
 40
0.8218941484362445
 40
0.908800792046616
 40
1.0
 40
1.0
 40
1.0
 40
1.0
 10
87.46306205000246
 20
157.1471570022837
 30
0.0
 10
87.44082545476249
 20
157.1077136710084
 30
0.0
 10
87.39756184627782
 20
157.0309725681907
 30
0.0
 10
87.32316109838705
 20
156.9255407077186
 30
0.0
 10
87.24516902580886
 20
156.8306929918799
 30
0.0
 10
87.16006505780528
 20
156.748963337596
 30
0.0
 10
87.07039537885126
 20
156.6777119526218
 30
0.0
 10
86.9756627240656
 20
156.6153741279028
 30
0.0
 10
86.87537390633024
 20
156.562255607557
 30
0.0
 10
86.769524181552
 20
156.5175030796843
 30
0.0
 10
86.65722463041048
 20
156.4830935855763
 30
0.0
 10
86.53820311400044
 20
156.4587893646553
 30
0.0
 10
86.41223161862166
 20
156.4437660960049
 30
0.0
 10
86.3258854387539
 20
156.4420209552278
 30
0.0
 10
86.28167182564349
 20
156.4411273548478
 30
0.0
  0
LINE
  5
103
330
1F
100
AcDbEntity
  8
0
  6
Continuous
 62
     7
370
    15
100
AcDbLine
 10
87.1840161306
 20
157.2936919256
 30
0.0
 11
87.4630627257
 21
157.1471539064
 31
0.0
  0
SPLINE
  5
104
330
1F
100
AcDbEntity
  8
0
  6
Continuous
 62
     7
370
    15
100
AcDbSpline
210
0.0
220
0.0
230
1.0
 70
     8
 71
     3
 72
    19
 73
    15
 74
     0
 42
0.00000001
 43
0.00000001
 12
1.0
 22
0.0
 32
0.0
 13
1.0
 23
0.0
 33
0.0
 40
0.0
 40
0.0
 40
0.0
 40
0.0
 40
0.0825922633314363
 40
0.163878894098497
 40
0.2456587396295056
 40
0.3277256953541238
 40
0.4086099609103238
 40
0.4857490859539343
 40
0.5591690561972846
 40
0.630268475857551
 40
0.7053060284320752
 40
0.7920649660966086
 40
0.8897964374100916
 40
1.0
 40
1.0
 40
1.0
 40
1.0
 10
86.24240900513067
 20
156.7552299189504
 30
0.0
 10
86.27376015273468
 20
156.7558379756103
 30
0.0
 10
86.33596684366222
 20
156.7570444766668
 30
0.0
 10
86.42860770100533
 20
156.7687763875779
 30
0.0
 10
86.51974722840482
 20
156.7877466631989
 30
0.0
 10
86.60900821167208
 20
156.8136366532826
 30
0.0
 10
86.69457905758877
 20
156.8452135053894
 30
0.0
 10
86.77382460765
 20
156.8833163630384
 30
0.0
 10
86.84670482327613
 20
156.9254661097814
 30
0.0
 10
86.91482178986242
 20
156.9736757848297
 30
0.0
 10
86.98089278321446
 20
157.0326839718328
 30
0.0
 10
87.04643526962919
 20
157.1063196928213
 30
0.0
 10
87.11671192299248
 20
157.193407220605
 30
0.0
 10
87.16070151573622
 20
157.2589528865829
 30
0.0
 10
87.18401557564349
 20
157.2936914574119
 30
0.0
  0
LINE
  5
105
330
1F
100
AcDbEntity
  8
0
  6
Continuous
 62
     7
370
    15
100
AcDbLine
 10
85.151186682
 20
120.0869117602
 30
0.0
 11
87.7492637408
 21
121.5869110747
 31
0.0
  0
LINE
  5
106
330
1F
100
AcDbEntity
  8
0
  6
Continuous
 62
     7
370
    15
100
AcDbLine
 10
87.7492637408
 20
121.5869110747
 30
0.0
 11
84.7492632491
 21
126.7830651923
 31
0.0
  0
LINE
  5
107
330
1F
100
AcDbEntity
  8
0
  6
Continuous
 62
     7
370
    15
100
AcDbLine
 10
84.7492632491
 20
126.7830651923
 30
0.0
 11
82.1511861903
 21
125.2830658777
 31
0.0
  0
LINE
  5
108
330
1F
100
AcDbEntity
  8
0
  6
Continuous
 62
     7
370
    15
100
AcDbLine
 10
82.1511861903
 20
125.2830658777
 30
0.0
 11
85.151186682
 21
120.0869117602
 31
0.0
  0
LINE
  5
109
330
1F
100
AcDbEntity
  8
0
  6
Continuous
 62
     7
370
    15
100
AcDbLine
 10
99.0075920743
 20
110.6472347601
 30
0.0
 11
96.4095187408
 21
112.1472340747
 31
0.0
  0
LINE
  5
10A
330
1F
100
AcDbEntity
  8
0
  6
Continuous
 62
     7
370
    15
100
AcDbLine
 10
96.4095187408
 20
112.1472340747
 30
0.0
 11
93.4095163864
 21
106.9510836824
 31
0.0
  0
LINE
  5
10B
330
1F
100
AcDbEntity
  8
0
  6
Continuous
 62
     7
370
    15
100
AcDbLine
 10
93.4095163864
 20
106.9510836824
 30
0.0
 11
96.0075934452
 21
105.4510806425
 31
0.0
  0
LINE
  5
10C
330
1F
100
AcDbEntity
  8
0
  6
Continuous
 62
     7
370
    15
100
AcDbLine
 10
96.0075934452
 20
105.4510806425
 30
0.0
 11
99.0075920743
 21
110.6472347601
 31
0.0
  0
LINE
  5
10D
330
1F
100
AcDbEntity
  8
0
  6
Continuous
 62
     7
370
    15
100
AcDbLine
 10
100.2543908578
 20
127.3670715018
 30
0.0
 11
100.2543908578
 21
124.3670728727
 31
0.0
  0
LINE
  5
10E
330
1F
100
AcDbEntity
  8
0
  6
Continuous
 62
     7
370
    15
100
AcDbLine
 10
100.2543908578
 20
124.3670728727
 30
0.0
 11
106.2543918413
 21
124.3670728727
 31
0.0
  0
LINE
  5
10F
330
1F
100
AcDbEntity
  8
0
  6
Continuous
 62
     7
370
    15
100
AcDbLine
 10
106.2543918413
 20
124.3670728727
 30
0.0
 11
106.2543918413
 21
127.3670715018
 31
0.0
  0
LINE
  5
110
330
1F
100
AcDbEntity
  8
0
  6
Continuous
 62
     7
370
    15
100
AcDbLine
 10
106.2543918413
 20
127.3670715018
 30
0.0
 11
100.2543908578
 21
127.3670715018
 31
0.0
  0
LINE
  5
111
330
1F
100
AcDbEntity
  8
0
  6
Continuous
 62
     7
370
    15
100
AcDbLine
 10
174.8043899459
 20
124.3670728727
 30
0.0
 11
180.8043872041
 21
124.3670728727
 31
0.0
  0
LINE
  5
112
330
1F
100
AcDbEntity
  8
0
  6
Continuous
 62
     7
370
    15
100
AcDbLine
 10
180.8043872041
 20
124.3670728727
 30
0.0
 11
180.8043872041
 21
127.3670715018
 31
0.0
  0
LINE
  5
113
330
1F
100
AcDbEntity
  8
0
  6
Continuous
 62
     7
370
    15
100
AcDbLine
 10
180.8043872041
 20
127.3670715018
 30
0.0
 11
174.8043899459
 21
127.3670715018
 31
0.0
  0
LINE
  5
114
330
1F
100
AcDbEntity
  8
0
  6
Continuous
 62
     7
370
    15
100
AcDbLine
 10
174.8043899459
 20
127.3670715018
 30
0.0
 11
174.8043899459
 21
124.3670728727
 31
0.0
  0
LINE
  5
115
330
1F
100
AcDbEntity
  8
0
  6
Continuous
 62
     7
370
    15
100
AcDbLine
 10
164.804392032
 20
124.3670728727
 30
0.0
 11
164.804392032
 21
130.3670738562
 31
0.0
  0
LINE
  5
116
330
1F
100
AcDbEntity
  8
0
  6
Continuous
 62
     7
370
    15
100
AcDbLine
 10
164.804392032
 20
130.3670738562
 30
0.0
 11
161.8043934029
 21
130.3670738562
 31
0.0
  0
LINE
  5
117
330
1F
100
AcDbEntity
  8
0
  6
Continuous
 62
     7
370
    15
100
AcDbLine
 10
161.8043934029
 20
130.3670738562
 30
0.0
 11
161.8043934029
 21
124.3670728727
 31
0.0
  0
LINE
  5
118
330
1F
100
AcDbEntity
  8
0
  6
Continuous
 62
     7
370
    15
100
AcDbLine
 10
161.8043934029
 20
124.3670728727
 30
0.0
 11
164.804392032
 21
124.3670728727
 31
0.0
  0
LINE
  5
119
330
1F
100
AcDbEntity
  8
0
  6
Continuous
 62
     7
370
    15
100
AcDbLine
 10
164.804392032
 20
114.3670749589
 30
0.0
 11
158.8043873233
 21
114.3670749589
 31
0.0
  0
LINE
  5
11A
330
1F
100
AcDbEntity
  8
0
  6
Continuous
 62
     7
370
    15
100
AcDbLine
 10
158.8043873233
 20
114.3670749589
 30
0.0
 11
158.8043873233
 21
111.3670726045
 31
0.0
  0
LINE
  5
11B
330
1F
100
AcDbEntity
  8
0
  6
Continuous
 62
     7
370
    15
100
AcDbLine
 10
158.8043873233
 20
111.3670726045
 30
0.0
 11
164.804392032
 21
111.3670726045
 31
0.0
  0
LINE
  5
11C
330
1F
100
AcDbEntity
  8
0
  6
Continuous
 62
     7
370
    15
100
AcDbLine
 10
164.804392032
 20
111.3670726045
 30
0.0
 11
164.804392032
 21
114.3670749589
 31
0.0
  0
LINE
  5
11D
330
1F
100
AcDbEntity
  8
0
  6
Continuous
 62
     7
370
    15
100
AcDbLine
 10
174.8043899459
 20
114.3670749589
 30
0.0
 11
174.8043899459
 21
108.3670739754
 31
0.0
  0
LINE
  5
11E
330
1F
100
AcDbEntity
  8
0
  6
Continuous
 62
     7
370
    15
100
AcDbLine
 10
174.8043899459
 20
108.3670739754
 30
0.0
 11
177.804388575
 21
108.3670739754
 31
0.0
  0
LINE
  5
11F
330
1F
100
AcDbEntity
  8
0
  6
Continuous
 62
     7
370
    15
100
AcDbLine
 10
177.804388575
 20
108.3670739754
 30
0.0
 11
177.804388575
 21
114.3670749589
 31
0.0
  0
LINE
  5
120
330
1F
100
AcDbEntity
  8
0
  6
Continuous
 62
     7
370
    15
100
AcDbLine
 10
177.804388575
 20
114.3670749589
 30
0.0
 11
174.8043899459
 21
114.3670749589
 31
0.0
  0
LINE
  5
121
330
1F
100
AcDbEntity
  8
0
  6
Continuous
 62
     7
370
    15
100
AcDbLine
 10
184.8043878597
 20
134.3670707865
 30
0.0
 11
184.8043878597
 21
131.3670721575
 31
0.0
  0
LINE
  5
122
330
1F
100
AcDbEntity
  8
0
  6
Continuous
 62
     7
370
    15
100
AcDbLine
 10
184.8043878597
 20
131.3670721575
 30
0.0
 11
190.8043851179
 21
131.3670721575
 31
0.0
  0
LINE
  5
123
330
1F
100
AcDbEntity
  8
0
  6
Continuous
 62
     7
370
    15
100
AcDbLine
 10
190.8043851179
 20
131.3670721575
 30
0.0
 11
190.8043851179
 21
134.3670707865
 31
0.0
  0
LINE
  5
124
330
1F
100
AcDbEntity
  8
0
  6
Continuous
 62
     7
370
    15
100
AcDbLine
 10
190.8043851179
 20
134.3670707865
 30
0.0
 11
195.8043952507
 21
134.3670707865
 31
0.0
  0
LINE
  5
125
330
1F
100
AcDbEntity
  8
0
  6
Continuous
 62
     7
370
    15
100
AcDbLine
 10
195.8043952507
 20
134.3670707865
 30
0.0
 11
193.8341786188
 21
145.5407214089
 31
0.0
  0
ARC
  5
126
330
1F
100
AcDbEntity
  8
0
  6
Continuous
 62
     7
370
    15
100
AcDbCircle
 10
192.8493668442
 20
145.3670731707
 30
0.0
 40
1.0
100
AcDbArc
 50
10.0
 51
90.0
  0
LINE
  5
127
330
1F
100
AcDbEntity
  8
0
  6
Continuous
 62
     7
370
    15
100
AcDbLine
 10
192.8493608755
 20
146.3670727535
 30
0.0
 11
191.8043871445
 21
146.3670727535
 31
0.0
  0
LINE
  5
128
330
1F
100
AcDbEntity
  8
0
  6
Continuous
 62
     7
370
    15
100
AcDbLine
 10
191.8043871445
 20
146.3670727535
 30
0.0
 11
181.8043892306
 21
136.3670748397
 31
0.0
  0
LINE
  5
129
330
1F
100
AcDbEntity
  8
0
  6
Continuous
 62
     7
370
    15
100
AcDbLine
 10
181.8043892306
 20
136.3670748397
 30
0.0
 11
181.8043892306
 21
134.3670707865
 31
0.0
  0
LINE
  5
12A
330
1F
100
AcDbEntity
  8
0
  6
Continuous
 62
     7
370
    15
100
AcDbLine
 10
181.8043892306
 20
134.3670707865
 30
0.0
 11
184.8043878597
 21
134.3670707865
 31
0.0
  0
LINE
  5
12B
330
1F
100
AcDbEntity
  8
0
  6
Continuous
 62
     7
370
    15
100
AcDbLine
 10
154.8043866676
 20
134.3670707865
 30
0.0
 11
157.8043927473
 21
134.3670707865
 31
0.0
  0
LINE
  5
12C
330
1F
100
AcDbEntity
  8
0
  6
Continuous
 62
     7
370
    15
100
AcDbLine
 10
157.8043927473
 20
134.3670707865
 30
0.0
 11
157.8043927473
 21
140.3670754953
 31
0.0
  0
LINE
  5
12D
330
1F
100
AcDbEntity
  8
0
  6
Continuous
 62
     7
370
    15
100
AcDbLine
 10
157.8043927473
 20
140.3670754953
 30
0.0
 11
154.8043866676
 21
140.3670754953
 31
0.0
  0
LINE
  5
12E
330
1F
100
AcDbEntity
  8
0
  6
Continuous
 62
     7
370
    15
100
AcDbLine
 10
154.8043866676
 20
140.3670754953
 30
0.0
 11
154.8043866676
 21
145.3670707269
 31
0.0
  0
LINE
  5
12F
330
1F
100
AcDbEntity
  8
0
  6
Continuous
 62
     7
370
    15
100
AcDbLine
 10
154.8043866676
 20
145.3670707269
 30
0.0
 11
143.6307434958
 21
143.3968540951
 31
0.0
  0
ARC
  5
130
330
1F
100
AcDbEntity
  8
0
  6
Continuous
 62
     7
370
    15
100
AcDbCircle
 10
143.8043902439
 20
142.4120497711
 30
0.0
 40
1.0
100
AcDbArc
 50
100.0
 51
180.0
  0
LINE
  5
131
330
1F
100
AcDbEntity
  8
0
  6
Continuous
 62
     7
370
    15
100
AcDbLine
 10
142.8043921513
 20
142.4120512529
 30
0.0
 11
142.8043921513
 21
141.3670700713
 31
0.0
  0
LINE
  5
132
330
1F
100
AcDbEntity
  8
0
  6
Continuous
 62
     7
370
    15
100
AcDbLine
 10
142.8043921513
 20
141.3670700713
 30
0.0
 11
152.8043900651
 21
131.3670721575
 31
0.0
  0
LINE
  5
133
330
1F
100
AcDbEntity
  8
0
  6
Continuous
 62
     7
370
    15
100
AcDbLine
 10
152.8043900651
 20
131.3670721575
 30
0.0
 11
154.8043866676
 21
131.3670721575
 31
0.0
  0
LINE
  5
134
330
1F
100
AcDbEntity
  8
0
  6
Continuous
 62
     7
370
    15
100
AcDbLine
 10
154.8043866676
 20
131.3670721575
 30
0.0
 11
154.8043866676
 21
134.3670707865
 31
0.0
  0
LINE
  5
135
330
1F
100
AcDbEntity
  8
0
  6
Continuous
 62
     7
370
    15
100
AcDbLine
 10
154.8043866676
 20
104.3670733197
 30
0.0
 11
154.8043866676
 21
107.3670719488
 31
0.0
  0
LINE
  5
136
330
1F
100
AcDbEntity
  8
0
  6
Continuous
 62
     7
370
    15
100
AcDbLine
 10
154.8043866676
 20
107.3670719488
 30
0.0
 11
148.8043894094
 21
107.3670719488
 31
0.0
  0
LINE
  5
137
330
1F
100
AcDbEntity
  8
0
  6
Continuous
 62
     7
370
    15
100
AcDbLine
 10
148.8043894094
 20
107.3670719488
 30
0.0
 11
148.8043894094
 21
104.3670733197
 31
0.0
  0
LINE
  5
138
330
1F
100
AcDbEntity
  8
0
  6
Continuous
 62
     7
370
    15
100
AcDbLine
 10
148.8043894094
 20
104.3670733197
 30
0.0
 11
143.8043867272
 21
104.3670733197
 31
0.0
  0
LINE
  5
139
330
1F
100
AcDbEntity
  8
0
  6
Continuous
 62
     7
370
    15
100
AcDbLine
 10
143.8043867272
 20
104.3670733197
 30
0.0
 11
145.7746033591
 21
93.19342456
 31
0.0
  0
ARC
  5
13A
330
1F
100
AcDbEntity
  8
0
  6
Continuous
 62
     7
370
    15
100
AcDbCircle
 10
146.7594136436
 20
93.3670731707
 30
0.0
 40
1.0
100
AcDbArc
 50
190.0
 51
270.0
  0
LINE
  5
13B
330
1F
100
AcDbEntity
  8
0
  6
Continuous
 62
     7
370
    15
100
AcDbLine
 10
146.7594136518
 20
92.3670732154
 30
0.0
 11
147.8043873829
 21
92.3670732154
 31
0.0
  0
LINE
  5
13C
330
1F
100
AcDbEntity
  8
0
  6
Continuous
 62
     7
370
    15
100
AcDbLine
 10
147.8043873829
 20
92.3670732154
 30
0.0
 11
157.8043927473
 21
102.3670729919
 31
0.0
  0
LINE
  5
13D
330
1F
100
AcDbEntity
  8
0
  6
Continuous
 62
     7
370
    15
100
AcDbLine
 10
157.8043927473
 20
102.3670729919
 30
0.0
 11
157.8043927473
 21
104.3670733197
 31
0.0
  0
LINE
  5
13E
330
1F
100
AcDbEntity
  8
0
  6
Continuous
 62
     7
370
    15
100
AcDbLine
 10
157.8043927473
 20
104.3670733197
 30
0.0
 11
154.8043866676
 21
104.3670733197
 31
0.0
  0
LINE
  5
13F
330
1F
100
AcDbEntity
  8
0
  6
Continuous
 62
     7
370
    15
100
AcDbLine
 10
184.8043878597
 20
104.3670733197
 30
0.0
 11
181.8043892306
 21
104.3670733197
 31
0.0
  0
LINE
  5
140
330
1F
100
AcDbEntity
  8
0
  6
Continuous
 62
     7
370
    15
100
AcDbLine
 10
181.8043892306
 20
104.3670733197
 30
0.0
 11
181.8043892306
 21
98.3670723363
 31
0.0
  0
LINE
  5
141
330
1F
100
AcDbEntity
  8
0
  6
Continuous
 62
     7
370
    15
100
AcDbLine
 10
181.8043892306
 20
98.3670723363
 30
0.0
 11
184.8043878597
 21
98.3670723363
 31
0.0
  0
LINE
  5
142
330
1F
100
AcDbEntity
  8
0
  6
Continuous
 62
     7
370
    15
100
AcDbLine
 10
184.8043878597
 20
98.3670723363
 30
0.0
 11
184.8043878597
 21
93.3670733793
 31
0.0
  0
LINE
  5
143
330
1F
100
AcDbEntity
  8
0
  6
Continuous
 62
     7
370
    15
100
AcDbLine
 10
184.8043878597
 20
93.3670733793
 30
0.0
 11
195.9780384821
 21
95.3372881486
 31
0.0
  0
ARC
  5
144
330
1F
100
AcDbEntity
  8
0
  6
Continuous
 62
     7
370
    15
100
AcDbCircle
 10
195.8043902439
 20
96.3220965704
 30
0.0
 40
0.9999999999999716
100
AcDbArc
 50
280.0
 51
0.0
  0
LINE
  5
145
330
1F
100
AcDbEntity
  8
0
  6
Continuous
 62
     7
370
    15
100
AcDbLine
 10
196.8043972773
 20
96.3220965787
 30
0.0
 11
196.8043972773
 21
97.367074035
 31
0.0
  0
LINE
  5
146
330
1F
100
AcDbEntity
  8
0
  6
Continuous
 62
     7
370
    15
100
AcDbLine
 10
196.8043972773
 20
97.367074035
 30
0.0
 11
186.8043919128
 21
107.3670719488
 31
0.0
  0
LINE
  5
147
330
1F
100
AcDbEntity
  8
0
  6
Continuous
 62
     7
370
    15
100
AcDbLine
 10
186.8043919128
 20
107.3670719488
 30
0.0
 11
184.8043878597
 21
107.3670719488
 31
0.0
  0
LINE
  5
148
330
1F
100
AcDbEntity
  8
0
  6
Continuous
 62
     7
370
    15
100
AcDbLine
 10
184.8043878597
 20
107.3670719488
 30
0.0
 11
184.8043878597
 21
104.3670733197
 31
0.0
  0
LINE
  5
149
330
1F
100
AcDbEntity
  8
0
  6
Continuous
 62
     7
370
    15
100
AcDbLine
 10
109.8043886048
 20
134.3670707865
 30
0.0
 11
109.8043886048
 21
131.3670721575
 31
0.0
  0
LINE
  5
14A
330
1F
100
AcDbEntity
  8
0
  6
Continuous
 62
     7
370
    15
100
AcDbLine
 10
109.8043886048
 20
131.3670721575
 30
0.0
 11
115.8043895883
 21
131.3670721575
 31
0.0
  0
LINE
  5
14B
330
1F
100
AcDbEntity
  8
0
  6
Continuous
 62
     7
370
    15
100
AcDbLine
 10
115.8043895883
 20
131.3670721575
 30
0.0
 11
115.8043895883
 21
134.3670707865
 31
0.0
  0
LINE
  5
14C
330
1F
100
AcDbEntity
  8
0
  6
Continuous
 62
     7
370
    15
100
AcDbLine
 10
115.8043895883
 20
134.3670707865
 30
0.0
 11
120.8043922705
 21
134.3670707865
 31
0.0
  0
LINE
  5
14D
330
1F
100
AcDbEntity
  8
0
  6
Continuous
 62
     7
370
    15
100
AcDbLine
 10
120.8043922705
 20
134.3670707865
 30
0.0
 11
118.8341756386
 21
145.5407214089
 31
0.0
  0
ARC
  5
14E
330
1F
100
AcDbEntity
  8
0
  6
Continuous
 62
     7
370
    15
100
AcDbCircle
 10
117.8493668442
 20
145.3670731707
 30
0.0
 40
1.0
100
AcDbArc
 50
10.0
 51
90.0
  0
LINE
  5
14F
330
1F
100
AcDbEntity
  8
0
  6
Continuous
 62
     7
370
    15
100
AcDbLine
 10
117.8493653459
 20
146.3670727535
 30
0.0
 11
116.8043916148
 21
146.3670727535
 31
0.0
  0
LINE
  5
150
330
1F
100
AcDbEntity
  8
0
  6
Continuous
 62
     7
370
    15
100
AcDbLine
 10
116.8043916148
 20
146.3670727535
 30
0.0
 11
106.8043899757
 21
136.3670748397
 31
0.0
  0
LINE
  5
151
330
1F
100
AcDbEntity
  8
0
  6
Continuous
 62
     7
370
    15
100
AcDbLine
 10
106.8043899757
 20
136.3670748397
 30
0.0
 11
106.8043899757
 21
134.3670707865
 31
0.0
  0
LINE
  5
152
330
1F
100
AcDbEntity
  8
0
  6
Continuous
 62
     7
370
    15
100
AcDbLine
 10
106.8043899757
 20
134.3670707865
 30
0.0
 11
109.8043886048
 21
134.3670707865
 31
0.0
  0
LINE
  5
153
330
1F
100
AcDbEntity
  8
0
  6
Continuous
 62
     7
370
    15
100
AcDbLine
 10
74.3140098673
 20
124.8574551864
 30
0.0
 11
76.9120850635
 21
126.357454501
 31
0.0
  0
LINE
  5
154
330
1F
100
AcDbEntity
  8
0
  6
Continuous
 62
     7
370
    15
100
AcDbLine
 10
76.9120850635
 20
126.357454501
 30
0.0
 11
73.9120845717
 21
131.5536048933
 31
0.0
  0
LINE
  5
155
330
1F
100
AcDbEntity
  8
0
  6
Continuous
 62
     7
370
    15
100
AcDbLine
 10
73.9120845717
 20
131.5536048933
 30
0.0
 11
71.3140093756
 21
130.0536055787
 31
0.0
  0
LINE
  5
156
330
1F
100
AcDbEntity
  8
0
  6
Continuous
 62
     7
370
    15
100
AcDbLine
 10
71.3140093756
 20
130.0536055787
 30
0.0
 11
68.8140089658
 21
134.3837302848
 31
0.0
  0
LINE
  5
157
330
1F
100
AcDbEntity
  8
0
  6
Continuous
 62
     7
370
    15
100
AcDbLine
 10
68.8140089658
 20
134.3837302848
 30
0.0
 11
60.1224538439
 21
127.0906512364
 31
0.0
  0
ARC
  5
158
330
1F
100
AcDbEntity
  8
0
  6
Continuous
 62
     7
370
    15
100
AcDbCircle
 10
60.7652414453
 20
126.3246083362
 30
0.0
 40
1.000000000000002
100
AcDbArc
 50
130.0
 51
210.0
  0
LINE
  5
159
330
1F
100
AcDbEntity
  8
0
  6
Continuous
 62
     7
370
    15
100
AcDbLine
 10
59.8992160556
 20
125.8246076031
 30
0.0
 11
60.4217043181
 21
124.9196302815
 31
0.0
  0
LINE
  5
15A
330
1F
100
AcDbEntity
  8
0
  6
Continuous
 62
     7
370
    15
100
AcDbLine
 10
60.4217043181
 20
124.9196302815
 30
0.0
 11
74.0819578093
 21
121.2593798264
 31
0.0
  0
LINE
  5
15B
330
1F
100
AcDbEntity
  8
0
  6
Continuous
 62
     7
370
    15
100
AcDbLine
 10
74.0819578093
 20
121.2593798264
 30
0.0
 11
75.8140091819
 21
122.2593781276
 31
0.0
  0
LINE
  5
15C
330
1F
100
AcDbEntity
  8
0
  6
Continuous
 62
     7
370
    15
100
AcDbLine
 10
75.8140091819
 20
122.2593781276
 30
0.0
 11
74.3140098673
 21
124.8574551864
 31
0.0
  0
LINE
  5
15D
330
1F
100
AcDbEntity
  8
0
  6
Continuous
 62
     7
370
    15
100
AcDbLine
 10
100.2947730047
 20
98.8766920491
 30
0.0
 11
97.6966959459
 21
100.3766913636
 31
0.0
  0
LINE
  5
15E
330
1F
100
AcDbEntity
  8
0
  6
Continuous
 62
     7
370
    15
100
AcDbLine
 10
97.6966959459
 20
100.3766913636
 30
0.0
 11
94.6966935915
 21
95.1805391087
 31
0.0
  0
LINE
  5
15F
330
1F
100
AcDbEntity
  8
0
  6
Continuous
 62
     7
370
    15
100
AcDbLine
 10
94.6966935915
 20
95.1805391087
 30
0.0
 11
97.2947706503
 21
93.6805397942
 31
0.0
  0
LINE
  5
160
330
1F
100
AcDbEntity
  8
0
  6
Continuous
 62
     7
370
    15
100
AcDbLine
 10
97.2947706503
 20
93.6805397942
 30
0.0
 11
94.7947730345
 21
89.3504132255
 31
0.0
  0
LINE
  5
161
330
1F
100
AcDbEntity
  8
0
  6
Continuous
 62
     7
370
    15
100
AcDbLine
 10
94.7947730345
 20
89.3504132255
 30
0.0
 11
105.4565426928
 21
85.4698453768
 31
0.0
  0
ARC
  5
162
330
1F
100
AcDbEntity
  8
0
  6
Continuous
 62
     7
370
    15
100
AcDbCircle
 10
105.7985624421
 20
86.4095380052
 30
0.0
 40
0.9999999999999791
100
AcDbArc
 50
250.0
 51
330.0
  0
LINE
  5
163
330
1F
100
AcDbEntity
  8
0
  6
Continuous
 62
     7
370
    15
100
AcDbLine
 10
106.6645872814
 20
85.9095376654
 30
0.0
 11
107.1870778722
 21
86.8145149871
 31
0.0
  0
LINE
  5
164
330
1F
100
AcDbEntity
  8
0
  6
Continuous
 62
     7
370
    15
100
AcDbLine
 10
107.1870778722
 20
86.8145149871
 30
0.0
 11
103.5268236917
 21
100.474768944
 31
0.0
  0
LINE
  5
165
330
1F
100
AcDbEntity
  8
0
  6
Continuous
 62
     7
370
    15
100
AcDbLine
 10
103.5268236917
 20
100.474768944
 30
0.0
 11
101.7947723192
 21
101.4747691079
 31
0.0
  0
LINE
  5
166
330
1F
100
AcDbEntity
  8
0
  6
Continuous
 62
     7
370
    15
100
AcDbLine
 10
101.7947723192
 20
101.4747691079
 30
0.0
 11
100.2947730047
 21
98.8766920491
 31
0.0
  0
ARC
  5
167
330
1F
100
AcDbEntity
  8
0
  6
Continuous
 62
     7
370
    15
100
AcDbCircle
 10
122.3252832137
 20
83.2217601042
 30
0.0
 40
0.5000000000000056
100
AcDbArc
 50
138.416632107
 51
232.5
  0
ARC
  5
168
330
1F
100
AcDbEntity
  8
0
  6
Continuous
 62
     7
370
    15
100
AcDbCircle
 10
132.3043902439
 20
74.3670731707
 30
0.0
 40
13.8412165041087
100
AcDbArc
 50
41.583367893
 51
138.416632107
  0
ARC
  5
169
330
1F
100
AcDbEntity
  8
0
  6
Continuous
 62
     7
370
    15
100
AcDbCircle
 10
142.2834972741
 20
83.2217601042
 30
0.0
 40
0.5000000000000244
100
AcDbArc
 50
307.5
 51
41.583367893
  0
LINE
  5
16A
330
1F
100
AcDbEntity
  8
0
  6
Continuous
 62
     7
370
    15
100
AcDbLine
 10
142.5878782791
 20
82.82508298
 30
0.0
 11
132.9755042714
 21
75.4492489359
 31
0.0
  0
LINE
  5
16B
330
1F
100
AcDbEntity
  8
0
  6
Continuous
 62
     7
370
    15
100
AcDbLine
 10
132.9755042714
 20
75.4492489359
 30
0.0
 11
133.5233901662
 21
74.7352309263
 31
0.0
  0
LINE
  5
16C
330
1F
100
AcDbEntity
  8
0
  6
Continuous
 62
     7
370
    15
100
AcDbLine
 10
133.5233901662
 20
74.7352309263
 30
0.0
 11
144.267872445
 21
82.9797663464
 31
0.0
  0
ARC
  5
16D
330
1F
100
AcDbEntity
  8
0
  6
Continuous
 62
     7
370
    15
100
AcDbCircle
 10
132.3043902439
 20
74.3670731707
 30
0.0
 40
14.7412165041087
100
AcDbArc
 50
35.7506798609
 51
144.2493201391
  0
LINE
  5
16E
330
1F
100
AcDbEntity
  8
0
  6
Continuous
 62
     7
370
    15
100
AcDbLine
 10
120.3409065527
 20
82.9797663464
 30
0.0
 11
131.0853888315
 21
74.7352309263
 31
0.0
  0
LINE
  5
16F
330
1F
100
AcDbEntity
  8
0
  6
Continuous
 62
     7
370
    15
100
AcDbLine
 10
131.0853888315
 20
74.7352309263
 30
0.0
 11
131.6332747263
 21
75.4492489359
 31
0.0
  0
LINE
  5
170
330
1F
100
AcDbEntity
  8
0
  6
Continuous
 62
     7
370
    15
100
AcDbLine
 10
131.6332747263
 20
75.4492489359
 30
0.0
 11
122.0209007186
 21
82.82508298
 31
0.0
  0
ARC
  5
171
330
1F
100
AcDbEntity
  8
0
  6
Continuous
 62
     7
370
    15
100
AcDbCircle
 10
172.3043902439
 20
64.3670731707
 30
0.0
 40
13.84121650410871
100
AcDbArc
 50
25.6891161445
 51
154.3108838555
  0
LINE
  5
172
330
1F
100
AcDbEntity
  8
0
  6
Continuous
 62
     7
370
    15
100
AcDbLine
 10
184.7775359672
 20
70.3670732182
 30
0.0
 11
185.7692827505
 21
70.3670732182
 31
0.0
  0
ARC
  5
173
330
1F
100
AcDbEntity
  8
0
  6
Continuous
 62
     7
370
    15
100
AcDbCircle
 10
172.3043902439
 20
64.3670731707
 30
0.0
 40
14.74121650410872
100
AcDbArc
 50
24.0179007229
 51
155.9820992771
  0
LINE
  5
174
330
1F
100
AcDbEntity
  8
0
  6
Continuous
 62
     7
370
    15
100
AcDbLine
 10
158.839494459
 20
70.3670732182
 30
0.0
 11
159.8312486929
 21
70.3670732182
 31
0.0
  0
ARC
  5
175
330
1F
100
AcDbEntity
  8
0
  6
Continuous
 62
     7
370
    15
100
AcDbCircle
 10
92.3043902439
 20
64.3670731707
 30
0.0
 40
13.84121650410871
100
AcDbArc
 50
25.6891161445
 51
154.3108838555
  0
LINE
  5
176
330
1F
100
AcDbEntity
  8
0
  6
Continuous
 62
     7
370
    15
100
AcDbLine
 10
104.7775340301
 20
70.3670732182
 30
0.0
 11
105.7692882639
 21
70.3670732182
 31
0.0
  0
ARC
  5
177
330
1F
100
AcDbEntity
  8
0
  6
Continuous
 62
     7
370
    15
100
AcDbCircle
 10
92.3043902439
 20
64.3670731707
 30
0.0
 40
14.74121650410872
100
AcDbArc
 50
24.0179007229
 51
155.9820992771
  0
LINE
  5
178
330
1F
100
AcDbEntity
  8
0
  6
Continuous
 62
     7
370
    15
100
AcDbLine
 10
78.8394925219
 20
70.3670732182
 30
0.0
 11
79.8312486184
 21
70.3670732182
 31
0.0
  0
LINE
  5
179
330
1F
100
AcDbEntity
  8
0
  6
Continuous
 62
     7
370
    15
100
AcDbLine
 10
134.8043908399
 20
156.6670757457
 30
0.0
 11
135.7043911737
 21
156.6670757457
 31
0.0
  0
LINE
  5
17A
330
1F
100
AcDbEntity
  8
0
  6
Continuous
 62
     7
370
    15
100
AcDbLine
 10
135.7043911737
 20
156.6670757457
 30
0.0
 11
135.7043911737
 21
168.3670726343
 31
0.0
  0
LINE
  5
17B
330
1F
100
AcDbEntity
  8
0
  6
Continuous
 62
     7
370
    15
100
AcDbLine
 10
134.8043908399
 20
168.3670726343
 30
0.0
 11
135.7043911737
 21
168.3670726343
 31
0.0
  0
LINE
  5
17C
330
1F
100
AcDbEntity
  8
0
  6
Continuous
 62
     7
370
    15
100
AcDbLine
 10
134.8043908399
 20
168.3670726343
 30
0.0
 11
134.8043908399
 21
156.6670757457
 31
0.0
  0
LINE
  5
17D
330
1F
100
AcDbEntity
  8
0
  6
Continuous
 62
     7
370
    15
100
AcDbLine
 10
128.904387824
 20
168.3670726343
 30
0.0
 11
128.904387824
 21
116.9770729466
 31
0.0
  0
LINE
  5
17E
330
1F
100
AcDbEntity
  8
0
  6
Continuous
 62
     7
370
    15
100
AcDbLine
 10
128.904387824
 20
116.9770729466
 30
0.0
 11
129.8043881577
 21
116.9770729466
 31
0.0
  0
LINE
  5
17F
330
1F
100
AcDbEntity
  8
0
  6
Continuous
 62
     7
370
    15
100
AcDbLine
 10
129.8043881577
 20
116.9770729466
 30
0.0
 11
129.8043881577
 21
168.3670726343
 31
0.0
  0
LINE
  5
180
330
1F
100
AcDbEntity
  8
0
  6
Continuous
 62
     7
370
    15
100
AcDbLine
 10
128.904387824
 20
168.3670726343
 30
0.0
 11
129.8043881577
 21
168.3670726343
 31
0.0
  0
LINE
  5
181
330
1F
100
AcDbEntity
  8
0
  6
Continuous
 62
     7
370
    15
100
AcDbLine
 10
72.9287550819
 20
107.2567847296
 30
0.0
 11
73.3787552488
 21
106.4773608669
 31
0.0
  0
LINE
  5
182
330
1F
100
AcDbEntity
  8
0
  6
Continuous
 62
     7
370
    15
100
AcDbLine
 10
73.3787552488
 20
106.4773608669
 30
0.0
 11
91.1518116516
 21
116.7386394664
 31
0.0
  0
ARC
  5
183
330
1F
100
AcDbEntity
  8
0
  6
Continuous
 62
     7
370
    15
100
AcDbCircle
 10
94.8043902439
 20
119.3670731707
 30
0.0
 40
4.499999999999999
100
AcDbArc
 50
204.2608295227
 51
215.7391704773
  0
LINE
  5
184
330
1F
100
AcDbEntity
  8
0
  6
Continuous
 62
     7
370
    15
100
AcDbLine
 10
90.7018114847
 20
117.5180633291
 30
0.0
 11
72.9287550819
 21
107.2567847296
 31
0.0
  0
LINE
  5
185
330
1F
100
AcDbEntity
  8
0
  6
Continuous
 62
     7
370
    15
100
AcDbLine
 10
116.2300263566
 20
106.4773608669
 30
0.0
 11
116.6800265235
 21
107.2567847296
 31
0.0
  0
LINE
  5
186
330
1F
100
AcDbEntity
  8
0
  6
Continuous
 62
     7
370
    15
100
AcDbLine
 10
116.6800265235
 20
107.2567847296
 30
0.0
 11
98.906968258
 21
117.5180633291
 31
0.0
  0
ARC
  5
187
330
1F
100
AcDbEntity
  8
0
  6
Continuous
 62
     7
370
    15
100
AcDbCircle
 10
94.8043902439
 20
119.3670731707
 30
0.0
 40
4.500000000000004
100
AcDbArc
 50
324.2608295227
 51
335.7391704773
  0
LINE
  5
188
330
1F
100
AcDbEntity
  8
0
  6
Continuous
 62
     7
370
    15
100
AcDbLine
 10
98.4569718164
 20
116.7386394664
 30
0.0
 11
116.2300263566
 21
106.4773608669
 31
0.0
  0
LINE
  5
189
330
1F
100
AcDbEntity
  8
0
  6
Continuous
 62
     7
370
    15
100
AcDbLine
 10
144.8043887538
 20
119.8170740827
 30
0.0
 11
144.8043887538
 21
118.9170737489
 31
0.0
  0
LINE
  5
18A
330
1F
100
AcDbEntity
  8
0
  6
Continuous
 62
     7
370
    15
100
AcDbLine
 10
144.8043887538
 20
118.9170737489
 30
0.0
 11
165.3269459528
 21
118.9170737489
 31
0.0
  0
ARC
  5
18B
330
1F
100
AcDbEntity
  8
0
  6
Continuous
 62
     7
370
    15
100
AcDbCircle
 10
169.8043902439
 20
119.3670731707
 30
0.0
 40
4.500000000000004
100
AcDbArc
 50
174.2608295227
 51
185.7391704773
  0
LINE
  5
18C
330
1F
100
AcDbEntity
  8
0
  6
Continuous
 62
     7
370
    15
100
AcDbLine
 10
165.3269459528
 20
119.8170740827
 30
0.0
 11
144.8043887538
 21
119.8170740827
 31
0.0
  0
LINE
  5
18D
330
1F
100
AcDbEntity
  8
0
  6
Continuous
 62
     7
370
    15
100
AcDbLine
 10
169.3543870968
 20
94.3670735433
 30
0.0
 11
170.2543874306
 21
94.3670735433
 31
0.0
  0
LINE
  5
18E
330
1F
100
AcDbEntity
  8
0
  6
Continuous
 62
     7
370
    15
100
AcDbLine
 10
170.2543874306
 20
94.3670735433
 30
0.0
 11
170.2543874306
 21
114.8896288796
 31
0.0
  0
ARC
  5
18F
330
1F
100
AcDbEntity
  8
0
  6
Continuous
 62
     7
370
    15
100
AcDbCircle
 10
169.8043902439
 20
119.3670731707
 30
0.0
 40
4.500000000000011
100
AcDbArc
 50
264.2608295227
 51
275.7391704773
  0
LINE
  5
190
330
1F
100
AcDbEntity
  8
0
  6
Continuous
 62
     7
370
    15
100
AcDbLine
 10
169.3543870968
 20
114.8896288796
 30
0.0
 11
169.3543870968
 21
94.3670735433
 31
0.0
  0
LINE
  5
191
330
1F
100
AcDbEntity
  8
0
  6
Continuous
 62
     7
370
    15
100
AcDbLine
 10
194.8043932241
 20
118.9170737489
 30
0.0
 11
194.8043932241
 21
119.8170740827
 31
0.0
  0
LINE
  5
192
330
1F
100
AcDbEntity
  8
0
  6
Continuous
 62
     7
370
    15
100
AcDbLine
 10
194.8043932241
 20
119.8170740827
 30
0.0
 11
174.2818360251
 21
119.8170740827
 31
0.0
  0
ARC
  5
193
330
1F
100
AcDbEntity
  8
0
  6
Continuous
 62
     7
370
    15
100
AcDbCircle
 10
169.8043902439
 20
119.3670731707
 30
0.0
 40
4.500000000000032
100
AcDbArc
 50
354.2608295227
 51
5.7391704773
  0
LINE
  5
194
330
1F
100
AcDbEntity
  8
0
  6
Continuous
 62
     7
370
    15
100
AcDbLine
 10
174.2818360251
 20
118.9170737489
 30
0.0
 11
194.8043932241
 21
118.9170737489
 31
0.0
  0
SPLINE
  5
195
330
1F
100
AcDbEntity
  8
0
  6
Continuous
 62
     7
370
    15
100
AcDbSpline
210
0.0
220
0.0
230
1.0
 70
     8
 71
     3
 72
    15
 73
    11
 74
     0
 42
0.00000001
 43
0.00000001
 12
1.0
 22
0.0
 32
0.0
 13
1.0
 23
0.0
 33
0.0
 40
0.0
 40
0.0
 40
0.0
 40
0.0
 40
0.1099838451118761
 40
0.2225804973638862
 40
0.3384998709624411
 40
0.4587085654776243
 40
0.5855353464579973
 40
0.7175177429458814
 40
0.8546668197510172
 40
1.0
 40
1.0
 40
1.0
 40
1.0
 10
85.64645547948965
 20
158.534677034335
 30
0.0
 10
85.62976219752527
 20
158.5195827187106
 30
0.0
 10
85.59597906329783
 20
158.4890355026567
 30
0.0
 10
85.55083854180853
 20
158.4364062961057
 30
0.0
 10
85.50761806912236
 20
158.3796547339437
 30
0.0
 10
85.46828441636968
 20
158.3166096093455
 30
0.0
 10
85.43220682990996
 20
158.247988830339
 30
0.0
 10
85.39844685272898
 20
158.1743711951041
 30
0.0
 10
85.36806044064738
 20
158.0951980648426
 30
0.0
 10
85.3509643306139
 20
158.0400256256142
 30
0.0
 10
85.34216862051528
 20
158.0116401753606
 30
0.0
  0
SPLINE
  5
196
330
1F
100
AcDbEntity
  8
0
  6
Continuous
 62
     7
370
    15
100
AcDbSpline
210
0.0
220
0.0
230
1.0
 70
     8
 71
     3
 72
    15
 73
    11
 74
     0
 42
0.00000001
 43
0.00000001
 12
1.0
 22
0.0
 32
0.0
 13
1.0
 23
0.0
 33
0.0
 40
0.0
 40
0.0
 40
0.0
 40
0.0
 40
0.1310919762569275
 40
0.2591412763281408
 40
0.3841617634834021
 40
0.5059919524977751
 40
0.6290980893898496
 40
0.7506691234237037
 40
0.8740389376151189
 40
0.9999999999999999
 40
0.9999999999999999
 40
0.9999999999999999
 40
0.9999999999999999
 10
86.30550996666913
 20
158.7744606881812
 30
0.0
 10
86.27416052815256
 20
158.7738490166361
 30
0.0
 10
86.21218927910044
 20
158.7726398705891
 30
0.0
 10
86.12088821090724
 20
158.7611697412563
 30
0.0
 10
86.03320851198909
 20
158.7422098963845
 30
0.0
 10
85.94850322437775
 20
158.7162449397823
 30
0.0
 10
85.8678823560056
 20
158.6816363372796
 30
0.0
 10
85.78968758778687
 20
158.6410531106701
 30
0.0
 10
85.71590719154207
 20
158.5915115268676
 30
0.0
 10
85.66976589606503
 20
158.5537526720354
 30
0.0
 10
85.64645547948965
 20
158.534677034335
 30
0.0
  0
SPLINE
  5
197
330
1F
100
AcDbEntity
  8
0
  6
Continuous
 62
     7
370
    15
100
AcDbSpline
210
0.0
220
0.0
230
1.0
 70
     8
 71
     3
 72
    19
 73
    15
 74
     0
 42
0.00000001
 43
0.00000001
 12
1.0
 22
0.0
 32
0.0
 13
1.0
 23
0.0
 33
0.0
 40
0.0
 40
0.0
 40
0.0
 40
0.0
 40
0.0962401251801538
 40
0.1852312611287006
 40
0.2675005230774373
 40
0.3444003817777763
 40
0.419594868555733
 40
0.4968906265927777
 40
0.5766379188385153
 40
0.6602678524196378
 40
0.745386615087628
 40
0.8300403273864521
 40
0.9144742116388018
 40
1.0
 40
1.0
 40
1.0
 40
1.0
 10
87.28357487051527
 20
158.0116401753606
 30
0.0
 10
87.27207824596174
 20
158.0533030490852
 30
0.0
 10
87.24995094447715
 20
158.1334906696622
 30
0.0
 10
87.20371458003072
 20
158.2445315601062
 30
0.0
 10
87.15164303933456
 20
158.3432194611158
 30
0.0
 10
87.09002130795976
 20
158.4287990941719
 30
0.0
 10
87.02020258233311
 20
158.5048026071541
 30
0.0
 10
86.93955739968519
 20
158.5712211923218
 30
0.0
 10
86.84912150619206
 20
158.6306386433893
 30
0.0
 10
86.74936236551426
 20
158.6807911428561
 30
0.0
 10
86.64372058043834
 20
158.7234810015785
 30
0.0
 10
86.53311438846683
 20
158.7521061173281
 30
0.0
 10
86.42025660059602
 20
158.7717156596278
 30
0.0
 10
86.34392231424832
 20
158.7735417680586
 30
0.0
 10
86.30550996666913
 20
158.7744606881812
 30
0.0
  0
LINE
  5
198
330
1F
100
AcDbEntity
  8
0
  6
Continuous
 62
     7
370
    15
100
AcDbLine
 10
85.3421692771
 20
158.0116373225
 30
0.0
 11
87.2835745138
 21
158.0116373225
 31
0.0
  0
SPLINE
  5
199
330
1F
100
AcDbEntity
  8
0
  6
Continuous
 62
     7
370
    15
100
AcDbSpline
210
0.0
220
0.0
230
1.0
 70
     8
 71
     3
 72
    27
 73
    23
 74
     0
 42
0.00000001
 43
0.00000001
 12
1.0
 22
0.0
 32
0.0
 13
1.0
 23
0.0
 33
0.0
 40
0.0
 40
0.0
 40
0.0
 40
0.0
 40
0.0656811979906408
 40
0.1284864641740624
 40
0.1881751303280091
 40
0.2451061306699851
 40
0.2994484245294725
 40
0.3508229360093787
 40
0.3999416805337743
 40
0.44667174363237
 40
0.4912545333734975
 40
0.5333763442704386
 40
0.5738527549682235
 40
0.6125263117194498
 40
0.649597136445331
 40
0.6855320415538502
 40
0.7201057860682017
 40
0.7538376629736511
 40
0.818925416046713
 40
0.880493461650164
 40
0.9403113338460569
 40
1.0
 40
1.0
 40
1.0
 40
1.0
 10
76.87331846025887
 20
165.069332483053
 30
0.0
 10
76.87276827102593
 20
165.111400055571
 30
0.0
 10
76.87169198327038
 20
165.1936932203516
 30
0.0
 10
76.86757799556926
 20
165.3142114010137
 30
0.0
 10
76.85695442107726
 20
165.4286791619229
 30
0.0
 10
76.84515530221277
 20
165.5375896345872
 30
0.0
 10
76.82775808112066
 20
165.6403399372917
 30
0.0
 10
76.80900027424038
 20
165.737790242548
 30
0.0
 10
76.78379906195015
 20
165.8287332673673
 30
0.0
 10
76.75687928697616
 20
165.9145928490789
 30
0.0
 10
76.72606889144473
 20
165.9943935035797
 30
0.0
 10
76.69215315718716
 20
166.0685072899417
 30
0.0
 10
76.65593139841815
 20
166.1372920146985
 30
0.0
 10
76.61658915795887
 20
166.200558956275
 30
0.0
 10
76.5745934748936
 20
166.2585914991862
 30
0.0
 10
76.52883592569604
 20
166.3102260937432
 30
0.0
 10
76.48113155288517
 20
166.3570630618517
 30
0.0
 10
76.41431436706155
 20
166.4105256309734
 30
0.0
 10
76.32684007726114
 20
166.4650373264565
 30
0.0
 10
76.21799442991869
 20
166.5152030863168
 30
0.0
 10
76.10472378566757
 20
166.5440113789378
 30
0.0
 10
76.02815033157553
 20
166.5480730659759
 30
0.0
 10
75.9899049987204
 20
166.5501017138222
 30
0.0
  0
SPLINE
  5
19A
330
1F
100
AcDbEntity
  8
0
  6
Continuous
 62
     7
370
    15
100
AcDbSpline
210
0.0
220
0.0
230
1.0
 70
     8
 71
     3
 72
    15
 73
    11
 74
     0
 42
0.00000001
 43
0.00000001
 12
1.0
 22
0.0
 32
0.0
 13
1.0
 23
0.0
 33
0.0
 40
0.0
 40
0.0
 40
0.0
 40
0.0
 40
0.110588338595336
 40
0.2245417540535934
 40
0.3425034940500983
 40
0.4643240984173629
 40
0.5907560327017648
 40
0.72222747535552
 40
0.8588428362087198
 40
0.9999999999999999
 40
0.9999999999999999
 40
0.9999999999999999
 40
0.9999999999999999
 10
76.7408064410281
 20
164.1894246304888
 30
0.0
 10
76.75135820882187
 20
164.2206543699552
 30
0.0
 10
76.77278282265432
 20
164.2840641341986
 30
0.0
 10
76.80039459692506
 20
164.3824277862792
 30
0.0
 10
76.82213999612875
 20
164.4856305502171
 30
0.0
 10
76.84170336187819
 20
164.5930556669355
 30
0.0
 10
76.85505641777554
 20
164.7054953679465
 30
0.0
 10
76.86580423105877
 20
164.8226017518622
 30
0.0
 10
76.87213491799805
 20
164.9444631140977
 30
0.0
 10
76.87291966906936
 20
165.027258105293
 30
0.0
 10
76.87331846025887
 20
165.069332483053
 30
0.0
  0
SPLINE
  5
19B
330
1F
100
AcDbEntity
  8
0
  6
Continuous
 62
     7
370
    15
100
AcDbSpline
210
0.0
220
0.0
230
1.0
 70
     8
 71
     3
 72
    19
 73
    15
 74
     0
 42
0.00000001
 43
0.00000001
 12
1.0
 22
0.0
 32
0.0
 13
1.0
 23
0.0
 33
0.0
 40
0.0
 40
0.0
 40
0.0
 40
0.0
 40
0.1128134007444579
 40
0.225393883920731
 40
0.3395948145627013
 40
0.4596754102248609
 40
0.5217351900879305
 40
0.5839258387389139
 40
0.6481741447653669
 40
0.7138810381130631
 40
0.7810044549073826
 40
0.8514509275565557
 40
0.9240506926641732
 40
1.0
 40
1.0
 40
1.0
 40
1.0
 10
75.9899049987204
 20
163.5885632522837
 30
0.0
 10
76.02866267037615
 20
163.5901610330953
 30
0.0
 10
76.10609799356085
 20
163.5933532958974
 30
0.0
 10
76.2192317887052
 20
163.6241520332716
 30
0.0
 10
76.32906205878746
 20
163.6706215727353
 30
0.0
 10
76.41513399906636
 20
163.7255690781545
 30
0.0
 10
76.48061654256779
 20
163.7778974076058
 30
0.0
 10
76.52753353267369
 20
163.8225120559187
 30
0.0
 10
76.57059558110694
 20
163.8724679232251
 30
0.0
 10
76.61143765596155
 20
163.92636721914
 30
0.0
 10
76.64889673163644
 20
163.9852397033138
 30
0.0
 10
76.68295986933165
 20
164.0488022785798
 30
0.0
 10
76.71404321687682
 20
164.117231456492
 30
0.0
 10
76.73175226282707
 20
164.1650011956078
 30
0.0
 10
76.7408064410281
 20
164.1894246304888
 30
0.0
  0
SPLINE
  5
19C
330
1F
100
AcDbEntity
  8
0
  6
Continuous
 62
     7
370
    15
100
AcDbSpline
210
0.0
220
0.0
230
1.0
 70
     8
 71
     3
 72
    27
 73
    23
 74
     0
 42
0.00000001
 43
0.00000001
 12
1.0
 22
0.0
 32
0.0
 13
1.0
 23
0.0
 33
0.0
 40
0.0
 40
0.0
 40
0.0
 40
0.0
 40
0.0729510658758663
 40
0.1415836941865458
 40
0.2059264601708702
 40
0.2653013571846053
 40
0.3205972327139263
 40
0.3718165030988146
 40
0.4187897697094501
 40
0.4616987286157646
 40
0.5021335821035688
 40
0.5408043152926478
 40
0.5781805253279637
 40
0.6142968652075171
 40
0.6496782432647883
 40
0.6842994600896384
 40
0.7183589527723615
 40
0.7520808646475988
 40
0.8176524386023853
 40
0.8797220764054361
 40
0.9399655597309876
 40
1.0
 40
1.0
 40
1.0
 40
1.0
 10
75.12331846025887
 20
165.069332483053
 30
0.0
 10
75.12343790732638
 20
165.0225837842491
 30
0.0
 10
75.1236697306298
 20
164.93185373945
 30
0.0
 10
75.129725931207
 20
164.800010478474
 30
0.0
 10
75.13797616320649
 20
164.6770401496568
 30
0.0
 10
75.14861746039165
 20
164.5627866131918
 30
0.0
 10
75.16442040891766
 20
164.4576366006819
 30
0.0
 10
75.18212719673534
 20
164.3608669176168
 30
0.0
 10
75.20367528635457
 20
164.272989680503
 30
0.0
 10
75.22917030422155
 20
164.1934018697984
 30
0.0
 10
75.25820940111502
 20
164.1207528013031
 30
0.0
 10
75.2899152647851
 20
164.0531515861758
 30
0.0
 10
75.32397598769
 20
163.98979964974
 30
0.0
 10
75.36209513824298
 20
163.9312660413659
 30
0.0
 10
75.40361020147199
 20
163.877359877293
 30
0.0
 10
75.44758346060948
 20
163.8271270449707
 30
0.0
 10
75.49565604485159
 20
163.7823300636351
 30
0.0
 10
75.5621597873948
 20
163.7286032086056
 30
0.0
 10
75.64995626182184
 20
163.673084074876
 30
0.0
 10
75.76057671705296
 20
163.6247379850444
 30
0.0
 10
75.87424516803445
 20
163.5943555286121
 30
0.0
 10
75.95139641812139
 20
163.590491772657
 30
0.0
 10
75.9899049987204
 20
163.5885632522837
 30
0.0
  0
SPLINE
  5
19D
330
1F
100
AcDbEntity
  8
0
  6
Continuous
 62
     7
370
    15
100
AcDbSpline
210
0.0
220
0.0
230
1.0
 70
     8
 71
     3
 72
    27
 73
    23
 74
     0
 42
0.00000001
 43
0.00000001
 12
1.0
 22
0.0
 32
0.0
 13
1.0
 23
0.0
 33
0.0
 40
0.0
 40
0.0
 40
0.0
 40
0.0
 40
0.0603866193110621
 40
0.1208832485859971
 40
0.1827546186251398
 40
0.2478110297583493
 40
0.2812991000432486
 40
0.3150876241506567
 40
0.3497023955502748
 40
0.3848565811185535
 40
0.4209661972261056
 40
0.4585111882611398
 40
0.4971747221273159
 40
0.5376020478662699
 40
0.580503018420014
 40
0.6274675400267078
 40
0.6783882095592457
 40
0.7339832205925608
 40
0.793746704550839
 40
0.8577136721607315
 40
0.9266978643613863
 40
0.9999999999999999
 40
0.9999999999999999
 40
0.9999999999999999
 40
0.9999999999999999
 10
75.9899049987204
 20
166.5501017138222
 30
0.0
 10
75.9511944066336
 20
166.5480702671749
 30
0.0
 10
75.87370270102849
 20
166.544003673071
 30
0.0
 10
75.75925474630172
 20
166.5153104194794
 30
0.0
 10
75.64955039465944
 20
166.4652974535418
 30
0.0
 10
75.56230741998057
 20
166.4103450810769
 30
0.0
 10
75.49544363347297
 20
166.3580067696352
 30
0.0
 10
75.44836094009622
 20
166.3126203155767
 30
0.0
 10
75.40421476787854
 20
166.2629740612116
 30
0.0
 10
75.36354706774087
 20
166.2085721463612
 30
0.0
 10
75.32545778454863
 20
166.1501067790421
 30
0.0
 10
75.2904767719729
 20
166.0871180143169
 30
0.0
 10
75.25895944229688
 20
166.0192866500914
 30
0.0
 10
75.22987490611669
 20
165.9466702146724
 30
0.0
 10
75.20430211809048
 20
165.8670892702368
 30
0.0
 10
75.18320815486048
 20
165.7793202766434
 30
0.0
 10
75.1637211017406
 20
165.6828583848542
 30
0.0
 10
75.14992583284004
 20
165.577138876909
 30
0.0
 10
75.13766207707833
 20
165.4628567235398
 30
0.0
 10
75.12978072912607
 20
165.3395794053104
 30
0.0
 10
75.12364947165683
 20
165.2075150249081
 30
0.0
 10
75.12343100729409
 20
165.1163158664055
 30
0.0
 10
75.12331846025887
 20
165.069332483053
 30
0.0
  0
SPLINE
  5
19E
330
1F
100
AcDbEntity
  8
0
  6
Continuous
 62
     7
370
    15
100
AcDbSpline
210
0.0
220
0.0
230
1.0
 70
     8
 71
     3
 72
    19
 73
    15
 74
     0
 42
0.00000001
 43
0.00000001
 12
1.0
 22
0.0
 32
0.0
 13
1.0
 23
0.0
 33
0.0
 40
0.0
 40
0.0
 40
0.0
 40
0.0
 40
0.085605694973528
 40
0.1689832639222362
 40
0.2509075823297907
 40
0.3337080961143255
 40
0.4160049842563385
 40
0.4976595675743817
 40
0.5798932856419661
 40
0.6639023210428555
 40
0.7484662538082617
 40
0.8317908864798617
 40
0.9152519088316946
 40
1.0
 40
1.0
 40
1.0
 40
1.0
 10
73.30601076795118
 20
156.7552299189504
 30
0.0
 10
73.35123713688441
 20
156.7565401992176
 30
0.0
 10
73.44051273286026
 20
156.7591266560679
 30
0.0
 10
73.57097190969418
 20
156.7848454757954
 30
0.0
 10
73.69588588156282
 20
156.8249491364998
 30
0.0
 10
73.81411726907966
 20
156.8808713463763
 30
0.0
 10
73.92368387251352
 20
156.951883761146
 30
0.0
 10
74.02303299383652
 20
157.0363201382195
 30
0.0
 10
74.10878160497057
 20
157.1357339895719
 30
0.0
 10
74.18211520987873
 20
157.2462915183924
 30
0.0
 10
74.24166195258871
 20
157.3655758704855
 30
0.0
 10
74.28484515438016
 20
157.4913663427929
 30
0.0
 10
74.31084274026198
 20
157.6221483847085
 30
0.0
 10
74.3140235689889
 20
157.7109767154457
 30
0.0
 10
74.31562615256657
 20
157.7557307202324
 30
0.0
  0
SPLINE
  5
19F
330
1F
100
AcDbEntity
  8
0
  6
Continuous
 62
     7
370
    15
100
AcDbSpline
210
0.0
220
0.0
230
1.0
 70
     8
 71
     3
 72
    19
 73
    15
 74
     0
 42
0.00000001
 43
0.00000001
 12
1.0
 22
0.0
 32
0.0
 13
1.0
 23
0.0
 33
0.0
 40
0.0
 40
0.0
 40
0.0
 40
0.0
 40
0.0847327446980078
 40
0.1681786536463074
 40
0.2514881976122769
 40
0.3358406713894913
 40
0.4198344941507947
 40
0.5023448759880078
 40
0.583649019732439
 40
0.66593100527627
 40
0.7487165252643914
 40
0.8310473361373618
 40
0.9144098067945603
 40
1.0
 40
1.0
 40
1.0
 40
1.0
 10
72.29639538333579
 20
157.7557307202324
 30
0.0
 10
72.29800220697132
 20
157.7109786930726
 30
0.0
 10
72.30119145142022
 20
157.6221542875548
 30
0.0
 10
72.32712668785527
 20
157.4913431649182
 30
0.0
 10
72.37051296773764
 20
157.3657613127995
 30
0.0
 10
72.42910024744684
 20
157.246144926757
 30
0.0
 10
72.50250646612744
 20
157.1354726487184
 30
0.0
 10
72.58899353280374
 20
157.0368011643645
 30
0.0
 10
72.68763323316665
 20
156.9516153529171
 30
0.0
 10
72.79724973336104
 20
156.8809345073579
 30
0.0
 10
72.91560405127277
 20
156.8247747516628
 30
0.0
 10
73.04086037238136
 20
156.7849757759462
 30
0.0
 10
73.17150106642706
 20
156.7591040835489
 30
0.0
 10
73.26078179757634
 20
156.7565326091941
 30
0.0
 10
73.30601076795118
 20
156.7552299189504
 30
0.0
  0
SPLINE
  5
1A0
330
1F
100
AcDbEntity
  8
0
  6
Continuous
 62
     7
370
    15
100
AcDbSpline
210
0.0
220
0.0
230
1.0
 70
     8
 71
     3
 72
    23
 73
    19
 74
     0
 42
0.00000001
 43
0.00000001
 12
1.0
 22
0.0
 32
0.0
 13
1.0
 23
0.0
 33
0.0
 40
0.0
 40
0.0
 40
0.0
 40
0.0
 40
0.0638458997347876
 40
0.1260436278408428
 40
0.1871653577195646
 40
0.2473992895212623
 40
0.3083800306041625
 40
0.3697796166640472
 40
0.4325839246869307
 40
0.497640785995255
 40
0.5624011369620625
 40
0.625557103333036
 40
0.6873320046201693
 40
0.7483127457030699
 40
0.8097910391226111
 40
0.8717675719729232
 40
0.9348361909503086
 40
1.0
 40
1.0
 40
1.0
 40
1.0
 10
73.30601076795118
 20
158.7744606881812
 30
0.0
 10
73.27207315662943
 20
158.7734960965069
 30
0.0
 10
73.20507402796159
 20
158.7715918139372
 30
0.0
 10
73.10645444325355
 20
158.7571079092269
 30
0.0
 10
73.01151428932123
 20
158.7341604051585
 30
0.0
 10
72.92007344518976
 20
158.7015563488986
 30
0.0
 10
72.83244027277335
 20
158.6594574499874
 30
0.0
 10
72.74853087037026
 20
158.6077490897861
 30
0.0
 10
72.66809843046227
 20
158.547116133307
 30
0.0
 10
72.59271636710122
 20
158.477653461697
 30
0.0
 10
72.5235340549389
 20
158.4017744671575
 30
0.0
 10
72.46305607834286
 20
158.3209261082725
 30
0.0
 10
72.4116309719719
 20
158.236419761996
 30
0.0
 10
72.36879081303397
 20
158.148167550856
 30
0.0
 10
72.3368836249384
 20
158.0552751369534
 30
0.0
 10
72.31371060245343
 20
157.9587945057263
 30
0.0
 10
72.29924036199054
 20
157.8585290892443
 30
0.0
 10
72.29735398340273
 20
157.7903680709387
 30
0.0
 10
72.29639538333579
 20
157.7557307202324
 30
0.0
  0
SPLINE
  5
1A1
330
1F
100
AcDbEntity
  8
0
  6
Continuous
 62
     7
370
    15
100
AcDbSpline
210
0.0
220
0.0
230
1.0
 70
     8
 71
     3
 72
    23
 73
    19
 74
     0
 42
0.00000001
 43
0.00000001
 12
1.0
 22
0.0
 32
0.0
 13
1.0
 23
0.0
 33
0.0
 40
0.0
 40
0.0
 40
0.0
 40
0.0
 40
0.0651847959860784
 40
0.128273727113932
 40
0.1902702203927609
 40
0.2517683137756866
 40
0.3127686945781285
 40
0.3747932794097917
 40
0.4379695860627104
 40
0.5030473998633733
 40
0.5681252136640346
 40
0.6309497487122644
 40
0.6923691093867032
 40
0.7529731677502635
 40
0.8136410669177501
 40
0.8743552086918156
 40
0.9365729684654822
 40
0.9999999999999999
 40
0.9999999999999999
 40
0.9999999999999999
 40
0.9999999999999999
 10
74.31562615256657
 20
157.7557307202324
 30
0.0
 10
74.31466788254059
 20
157.7903682779438
 30
0.0
 10
74.31278215342306
 20
157.8585297036036
 30
0.0
 10
74.29830718904302
 20
157.958792157197
 30
0.0
 10
74.27515164937961
 20
158.0552837538266
 30
0.0
 10
74.24318003212557
 20
158.1481357571093
 30
0.0
 10
74.20052601827703
 20
158.2366482614312
 30
0.0
 10
74.14810922519935
 20
158.3206779884882
 30
0.0
 10
74.08787819979236
 20
158.4020545345406
 30
0.0
 10
74.01786107889428
 20
158.4774081753283
 30
0.0
 10
73.94255770101235
 20
158.5471432119015
 30
0.0
 10
73.8620926628301
 20
158.607772601301
 30
0.0
 10
73.77830768424694
 20
158.6592301967964
 30
0.0
 10
73.69092910158588
 20
158.7019164373689
 30
0.0
 10
73.59947653393846
 20
158.7338637776948
 30
0.0
 10
73.50466940475762
 20
158.757240409198
 30
0.0
 10
73.40647059481795
 20
158.7715306058308
 30
0.0
 10
73.33971155165774
 20
158.7734777472921
 30
0.0
 10
73.30601076795118
 20
158.7744606881812
 30
0.0
  0
SPLINE
  5
1A2
330
1F
100
AcDbEntity
  8
0
  6
Continuous
 62
     7
370
    15
100
AcDbSpline
210
0.0
220
0.0
230
1.0
 70
     8
 71
     3
 72
    23
 73
    19
 74
     0
 42
0.00000001
 43
0.00000001
 12
1.0
 22
0.0
 32
0.0
 13
1.0
 23
0.0
 33
0.0
 40
0.0
 40
0.0
 40
0.0
 40
0.0
 40
0.0545639495070563
 40
0.1078262027811381
 40
0.1619237085213965
 40
0.2175097010530334
 40
0.2744983327961322
 40
0.3348147646240107
 40
0.3975549470643461
 40
0.4647545773561952
 40
0.5329012097695213
 40
0.600097213823326
 40
0.6653541614565468
 40
0.7310836277242048
 40
0.7968834939590075
 40
0.8632915901470217
 40
0.9308312175092465
 40
1.0
 40
1.0
 40
1.0
 40
1.0
 10
69.91819025513065
 20
166.0060312010017
 30
0.0
 10
69.9188776220431
 20
165.9877506914767
 30
0.0
 10
69.92023595780795
 20
165.9516257785116
 30
0.0
 10
69.93074108583158
 20
165.8982799125281
 30
0.0
 10
69.94639794062405
 20
165.8458582757941
 30
0.0
 10
69.97104860205016
 20
165.7956073647377
 30
0.0
 10
70.0006149603809
 20
165.7457840055495
 30
0.0
 10
70.03710643644045
 20
165.6976334195352
 30
0.0
 10
70.08059546433931
 20
165.6509880346723
 30
0.0
 10
70.1296229046184
 20
165.6062445934631
 30
0.0
 10
70.18303444244717
 20
165.5643458303734
 30
0.0
 10
70.23961848567909
 20
165.5279726488746
 30
0.0
 10
70.29866487704952
 20
165.4975385383934
 30
0.0
 10
70.35956694625553
 20
165.4722091336189
 30
0.0
 10
70.422945393655
 20
165.452519196276
 30
0.0
 10
70.48841186710695
 20
165.4385505498375
 30
0.0
 10
70.55597736944091
 20
165.4298685530121
 30
0.0
 10
70.601757950215
 20
165.4288315317522
 30
0.0
 10
70.62492102436144
 20
165.4283068420273
 30
0.0
  0
SPLINE
  5
1A3
330
1F
100
AcDbEntity
  8
0
  6
Continuous
 62
     7
370
    15
100
AcDbSpline
210
0.0
220
0.0
230
1.0
 70
     8
 71
     3
 72
    23
 73
    19
 74
     0
 42
0.00000001
 43
0.00000001
 12
1.0
 22
0.0
 32
0.0
 13
1.0
 23
0.0
 33
0.0
 40
0.0
 40
0.0
 40
0.0
 40
0.0
 40
0.0752433085911291
 40
0.147208811720252
 40
0.2164470898547695
 40
0.2840250416193502
 40
0.3506554491966433
 40
0.4150313178410245
 40
0.4796298309645129
 40
0.5446516341371387
 40
0.6080442396977351
 40
0.6678275650288115
 40
0.7251142466493328
 40
0.780991707910634
 40
0.8355270040618515
 40
0.8894381545415876
 40
0.9440720891799476
 40
1.0
 40
1.0
 40
1.0
 40
1.0
 10
70.61230083205375
 20
166.5501017138222
 30
0.0
 10
70.58775002617234
 20
166.5494502732669
 30
0.0
 10
70.5397179150352
 20
166.5481757706985
 30
0.0
 10
70.46928924391688
 20
166.5415171337005
 30
0.0
 10
70.40231687660847
 20
166.5285639169197
 30
0.0
 10
70.33810107595289
 20
166.5113252053605
 30
0.0
 10
70.27752226373237
 20
166.4880372172262
 30
0.0
 10
70.21975770916062
 20
166.4606422079653
 30
0.0
 10
70.16579051935453
 20
166.427336142471
 30
0.0
 10
70.11496921638391
 20
166.3899749445646
 30
0.0
 10
70.06921844186681
 20
166.3488820384838
 30
0.0
 10
70.02861389021417
 20
166.3060683197031
 30
0.0
 10
69.99488577601493
 20
166.2606929276452
 30
0.0
 10
69.96624466653677
 20
166.213884567922
 30
0.0
 10
69.94546314906027
 20
166.1642539916623
 30
0.0
 10
69.92989884517478
 20
166.1133228152596
 30
0.0
 10
69.91937745368165
 20
166.0604474311929
 30
0.0
 10
69.918589063659
 20
166.0243109206513
 30
0.0
 10
69.91819025513065
 20
166.0060312010017
 30
0.0
  0
SPLINE
  5
1A4
330
1F
100
AcDbEntity
  8
0
  6
Continuous
 62
     7
370
    15
100
AcDbSpline
210
0.0
220
0.0
230
1.0
 70
     8
 71
     3
 72
    19
 73
    15
 74
     0
 42
0.00000001
 43
0.00000001
 12
1.0
 22
0.0
 32
0.0
 13
1.0
 23
0.0
 33
0.0
 40
0.0
 40
0.0
 40
0.0
 40
0.0
 40
0.0896899362473949
 40
0.1784940104960782
 40
0.2668377532994899
 40
0.3565581760610154
 40
0.4453342496549775
 40
0.5308058350374975
 40
0.614076217440289
 40
0.6977070858228028
 40
0.7791419498114677
 40
0.8553535905869757
 40
0.9285568200856623
 40
1.0
 40
1.0
 40
1.0
 40
1.0
 10
70.62492102436144
 20
165.4283068420273
 30
0.0
 10
70.65467112815658
 20
165.4291797091768
 30
0.0
 10
70.7138774957966
 20
165.4309168222204
 30
0.0
 10
70.80115682738011
 20
165.4470679959804
 30
0.0
 10
70.8860194717943
 20
165.4724739136362
 30
0.0
 10
70.96755837623506
 20
165.5072338799561
 30
0.0
 10
71.04366296145506
 20
165.5508617398049
 30
0.0
 10
71.11150302968073
 20
165.6030947578943
 30
0.0
 10
71.1704999225238
 20
165.6627268550977
 30
0.0
 10
71.22004053274749
 20
165.7288296908671
 30
0.0
 10
71.25845037917722
 20
165.7991812791251
 30
0.0
 10
71.28835218696844
 20
165.8697815719452
 30
0.0
 10
71.30581340233043
 20
165.9413838029333
 30
0.0
 10
71.30809096931779
 20
165.9893507667405
 30
0.0
 10
71.3092158961563
 20
166.0130424189504
 30
0.0
  0
SPLINE
  5
1A5
330
1F
100
AcDbEntity
  8
0
  6
Continuous
 62
     7
370
    15
100
AcDbSpline
210
0.0
220
0.0
230
1.0
 70
     8
 71
     3
 72
    23
 73
    19
 74
     0
 42
0.00000001
 43
0.00000001
 12
1.0
 22
0.0
 32
0.0
 13
1.0
 23
0.0
 33
0.0
 40
0.0
 40
0.0
 40
0.0
 40
0.0
 40
0.050902437683654
 40
0.1010340427826131
 40
0.1510838170086571
 40
0.2030619875551363
 40
0.2562484343627523
 40
0.3108467145045999
 40
0.3687690999693244
 40
0.4300150403860027
 40
0.4925196472738479
 40
0.5560487215256793
 40
0.6219956829149549
 40
0.6901923690829552
 40
0.7613848549885
 40
0.8363562199507224
 40
0.9154870053271102
 40
1.0
 40
1.0
 40
1.0
 40
1.0
 10
71.3092158961563
 20
166.0130424189504
 30
0.0
 10
71.30868399857611
 20
166.0296704548689
 30
0.0
 10
71.30762825811811
 20
166.0626747228143
 30
0.0
 10
71.2989282021601
 20
166.1114130881513
 30
0.0
 10
71.28455236915437
 20
166.159042671674
 30
0.0
 10
71.26508928908353
 20
166.2059569423818
 30
0.0
 10
71.2394794943121
 20
166.2514976744679
 30
0.0
 10
71.20911530684276
 20
166.2963807624773
 30
0.0
 10
71.17223080543731
 20
166.339596526276
 30
0.0
 10
71.13083437204708
 20
166.3821520747898
 30
0.0
 10
71.08388896340905
 20
166.4215360984614
 30
0.0
 10
71.03148505111945
 20
166.45617080869
 30
0.0
 10
70.97389130073907
 20
166.4855831652429
 30
0.0
 10
70.91110635076237
 20
166.5094719200208
 30
0.0
 10
70.84336142666221
 20
166.5274142696602
 30
0.0
 10
70.77096855221555
 20
166.5408506174403
 30
0.0
 10
70.69332410525404
 20
166.5484237288891
 30
0.0
 10
70.63989435418918
 20
166.5495302543814
 30
0.0
 10
70.61230083205375
 20
166.5501017138222
 30
0.0
  0
SPLINE
  5
1A6
330
1F
100
AcDbEntity
  8
0
  6
Continuous
 62
     7
370
    15
100
AcDbSpline
210
0.0
220
0.0
230
1.0
 70
     8
 71
     3
 72
    19
 73
    15
 74
     0
 42
0.00000001
 43
0.00000001
 12
1.0
 22
0.0
 32
0.0
 13
1.0
 23
0.0
 33
0.0
 40
0.0
 40
0.0
 40
0.0
 40
0.0
 40
0.0748982079275951
 40
0.1485962943439406
 40
0.2244712347857292
 40
0.3023227423595751
 40
0.3819186179896803
 40
0.4611486955215909
 40
0.5424171227241521
 40
0.6267160830665695
 40
0.7145968311855371
 40
0.8049029203553214
 40
0.9001272540718591
 40
0.9999999999999999
 40
0.9999999999999999
 40
0.9999999999999999
 40
0.9999999999999999
 10
69.73870307564347
 20
164.2995007522837
 30
0.0
 10
69.74006633442448
 20
164.2680698461392
 30
0.0
 10
69.74277100799003
 20
164.2057116628103
 30
0.0
 10
69.76422764677943
 20
164.1135485915263
 30
0.0
 10
69.79866318228585
 20
164.0243275366962
 30
0.0
 10
69.84668839824806
 20
163.9387755839531
 30
0.0
 10
69.90615597078845
 20
163.8588254776344
 30
0.0
 10
69.97928243876714
 20
163.7891367020364
 30
0.0
 10
70.0615232765172
 20
163.727215223473
 30
0.0
 10
70.155661130545
 20
163.6771346900491
 30
0.0
 10
70.25848959660216
 20
163.6371398349671
 30
0.0
 10
70.36998132551939
 20
163.609583872284
 30
0.0
 10
70.48853624421741
 20
163.5913424223895
 30
0.0
 10
70.57039583647708
 20
163.5895042412453
 30
0.0
 10
70.61230083205375
 20
163.5885632522837
 30
0.0
  0
SPLINE
  5
1A7
330
1F
100
AcDbEntity
  8
0
  6
Continuous
 62
     7
370
    15
100
AcDbSpline
210
0.0
220
0.0
230
1.0
 70
     8
 71
     3
 72
    23
 73
    19
 74
     0
 42
0.00000001
 43
0.00000001
 12
1.0
 22
0.0
 32
0.0
 13
1.0
 23
0.0
 33
0.0
 40
0.0
 40
0.0
 40
0.0
 40
0.0
 40
0.0712686925865619
 40
0.1398117850281262
 40
0.2064974320993723
 40
0.2715352442755379
 40
0.3360818306156432
 40
0.4005283877476351
 40
0.4649838426509138
 40
0.5300503053616125
 40
0.5944234089533923
 40
0.6555827099825242
 40
0.7148491056365293
 40
0.7721150638706034
 40
0.8289992113006449
 40
0.8851221627752391
 40
0.9420793532637942
 40
1.0
 40
1.0
 40
1.0
 40
1.0
 10
70.63263336410502
 20
165.069332483053
 30
0.0
 10
70.6015075785463
 20
165.0687788416857
 30
0.0
 10
70.54044638208781
 20
165.0676927324136
 30
0.0
 10
70.45098945394173
 20
165.0556032319747
 30
0.0
 10
70.36513628845462
 20
165.0387738389213
 30
0.0
 10
70.28317635196413
 20
165.0132430004463
 30
0.0
 10
70.20514425520825
 20
164.9800465101743
 30
0.0
 10
70.13061757262616
 20
164.940111970226
 30
0.0
 10
70.0601664430604
 20
164.8929065270314
 30
0.0
 10
69.99476371670222
 20
164.8390299115365
 30
0.0
 10
69.93504038720458
 20
164.7809704575753
 30
0.0
 10
69.8826420872592
 20
164.7195083224401
 30
0.0
 10
69.83814456677372
 20
164.6557857896183
 30
0.0
 10
69.80231131588758
 20
164.5889935603391
 30
0.0
 10
69.7728995838288
 20
164.5205459494874
 30
0.0
 10
69.75358570657431
 20
164.4487383542439
 30
0.0
 10
69.74120399500002
 20
164.3749512410506
 30
0.0
 10
69.73954136347591
 20
164.3247911426029
 30
0.0
 10
69.73870307564347
 20
164.2995007522837
 30
0.0
  0
SPLINE
  5
1A8
330
1F
100
AcDbEntity
  8
0
  6
Continuous
 62
     7
370
    15
100
AcDbSpline
210
0.0
220
0.0
230
1.0
 70
     8
 71
     3
 72
    23
 73
    19
 74
     0
 42
0.00000001
 43
0.00000001
 12
1.0
 22
0.0
 32
0.0
 13
1.0
 23
0.0
 33
0.0
 40
0.0
 40
0.0
 40
0.0
 40
0.0
 40
0.0765589329940481
 40
0.1491613519791144
 40
0.2188268461269957
 40
0.2855671390889793
 40
0.3503131057192129
 40
0.4141251538580812
 40
0.4771791613162295
 40
0.5403680185081858
 40
0.6022023899907494
 40
0.6620336537315619
 40
0.719934407049583
 40
0.7759074326823268
 40
0.8311148643832932
 40
0.8866674470119643
 40
0.9425523618334838
 40
1.0
 40
1.0
 40
1.0
 40
1.0
 10
70.61230083205375
 20
163.5885632522837
 30
0.0
 10
70.64505119997567
 20
163.5891920607017
 30
0.0
 10
70.70885941889938
 20
163.5904171811427
 30
0.0
 10
70.80194536784538
 20
163.6012314754503
 30
0.0
 10
70.8897899164592
 20
163.6183811001186
 30
0.0
 10
70.97222271486817
 20
163.6433246459511
 30
0.0
 10
71.05016655465
 20
163.6737746225074
 30
0.0
 10
71.12229990869139
 20
163.7129467040188
 30
0.0
 10
71.19047843579754
 20
163.757499027068
 30
0.0
 10
71.25134255854076
 20
163.810357183615
 30
0.0
 10
71.3067757672833
 20
163.8668366783308
 30
0.0
 10
71.35510905978249
 20
163.9266267214745
 30
0.0
 10
71.3970666109642
 20
163.9881023537489
 30
0.0
 10
71.4299975667192
 20
164.0526528384369
 30
0.0
 10
71.45632382049074
 20
164.1190397530349
 30
0.0
 10
71.47524737518077
 20
164.1878752643048
 30
0.0
 10
71.48692359043748
 20
164.2593704972584
 30
0.0
 10
71.48810448618445
 20
164.3078695683602
 30
0.0
 10
71.48870307564349
 20
164.3324534766427
 30
0.0
  0
SPLINE
  5
1A9
330
1F
100
AcDbEntity
  8
0
  6
Continuous
 62
     7
370
    15
100
AcDbSpline
210
0.0
220
0.0
230
1.0
 70
     8
 71
     3
 72
    23
 73
    19
 74
     0
 42
0.00000001
 43
0.00000001
 12
1.0
 22
0.0
 32
0.0
 13
1.0
 23
0.0
 33
0.0
 40
0.0
 40
0.0
 40
0.0
 40
0.0
 40
0.0573394259201528
 40
0.1130633316232405
 40
0.1691814487493734
 40
0.2257745596549416
 40
0.2838263038920814
 40
0.3434542790864961
 40
0.4059069615102781
 40
0.4713922597696836
 40
0.5380028337126923
 40
0.6030635561963472
 40
0.667601830763422
 40
0.732225442816906
 40
0.797004809828985
 40
0.8630479900344351
 40
0.9303569870570443
 40
1.0
 40
1.0
 40
1.0
 40
1.0
 10
71.48870307564349
 20
164.3324534766427
 30
0.0
 10
71.48779722710985
 20
164.356330817231
 30
0.0
 10
71.48601105203892
 20
164.403412761877
 30
0.0
 10
71.47467436066462
 20
164.4731792885895
 30
0.0
 10
71.45475848353554
 20
164.5405821027813
 30
0.0
 10
71.42743108667437
 20
164.6064321087037
 30
0.0
 10
71.39105012399672
 20
164.6693950594359
 30
0.0
 10
71.34820525399762
 20
164.7311112307489
 30
0.0
 10
71.29651113535463
 20
164.7898676753455
 30
0.0
 10
71.23809853920397
 20
164.8461207713566
 30
0.0
 10
71.17443957849329
 20
164.8981365080699
 30
0.0
 10
71.10677243363904
 20
164.9441509466783
 30
0.0
 10
71.03561797157795
 20
164.98290306294
 30
0.0
 10
70.96112676069355
 20
165.0144195582922
 30
0.0
 10
70.88346420475824
 20
165.0392070279492
 30
0.0
 10
70.8026874261816
 20
165.0565230231366
 30
0.0
 10
70.71870185143308
 20
165.0674226259788
 30
0.0
 10
70.66164698066066
 20
165.0686886717981
 30
0.0
 10
70.63263336410502
 20
165.069332483053
 30
0.0
  0
LINE
  5
1AA
330
1F
100
AcDbEntity
  8
0
  6
Continuous
 62
     7
370
    15
100
AcDbLine
 10
76.9511428696
 20
158.0116373225
 30
0.0
 11
78.892549969
 21
158.0116373225
 31
0.0
  0
SPLINE
  5
1AB
330
1F
100
AcDbEntity
  8
0
  6
Continuous
 62
     7
370
    15
100
AcDbSpline
210
0.0
220
0.0
230
1.0
 70
     8
 71
     3
 72
    19
 73
    15
 74
     0
 42
0.00000001
 43
0.00000001
 12
1.0
 22
0.0
 32
0.0
 13
1.0
 23
0.0
 33
0.0
 40
0.0
 40
0.0
 40
0.0
 40
0.0
 40
0.0962401251801545
 40
0.1852312611287012
 40
0.2675005230774379
 40
0.3444003817777768
 40
0.4195948685557334
 40
0.496890626592778
 40
0.5766379188385156
 40
0.660267852419638
 40
0.7453866150876283
 40
0.8300403273864546
 40
0.9144742116388017
 40
0.9999999999999999
 40
0.9999999999999999
 40
0.9999999999999999
 40
0.9999999999999999
 10
78.89254922948963
 20
158.0116401753606
 30
0.0
 10
78.88105260493609
 20
158.0533030490852
 30
0.0
 10
78.85892530345151
 20
158.1334906696622
 30
0.0
 10
78.81268893900508
 20
158.2445315601063
 30
0.0
 10
78.76061739830892
 20
158.3432194611158
 30
0.0
 10
78.69899566693411
 20
158.4287990941719
 30
0.0
 10
78.62917694130748
 20
158.5048026071541
 30
0.0
 10
78.54853175865954
 20
158.5712211923218
 30
0.0
 10
78.45809586516641
 20
158.6306386433893
 30
0.0
 10
78.3583367244886
 20
158.6807911428561
 30
0.0
 10
78.25269493941269
 20
158.7234810015785
 30
0.0
 10
78.14208874744116
 20
158.7521061173281
 30
0.0
 10
78.02923095957037
 20
158.7717156596278
 30
0.0
 10
77.95289667322267
 20
158.7735417680586
 30
0.0
 10
77.91448432564347
 20
158.7744606881812
 30
0.0
  0
SPLINE
  5
1AC
330
1F
100
AcDbEntity
  8
0
  6
Continuous
 62
     7
370
    15
100
AcDbSpline
210
0.0
220
0.0
230
1.0
 70
     8
 71
     3
 72
    15
 73
    11
 74
     0
 42
0.00000001
 43
0.00000001
 12
1.0
 22
0.0
 32
0.0
 13
1.0
 23
0.0
 33
0.0
 40
0.0
 40
0.0
 40
0.0
 40
0.0
 40
0.1310919762569275
 40
0.2591412763281408
 40
0.3841617634834021
 40
0.5059919524977751
 40
0.6290980893898496
 40
0.7506691234237037
 40
0.8740389376151189
 40
0.9999999999999999
 40
0.9999999999999999
 40
0.9999999999999999
 40
0.9999999999999999
 10
77.91448432564347
 20
158.7744606881812
 30
0.0
 10
77.88313488712691
 20
158.7738490166361
 30
0.0
 10
77.82116363807478
 20
158.7726398705891
 30
0.0
 10
77.7298625698816
 20
158.7611697412563
 30
0.0
 10
77.64218287096342
 20
158.7422098963845
 30
0.0
 10
77.5574775833521
 20
158.7162449397823
 30
0.0
 10
77.47685671497995
 20
158.6816363372796
 30
0.0
 10
77.39866194676124
 20
158.6410531106701
 30
0.0
 10
77.32488155051642
 20
158.5915115268676
 30
0.0
 10
77.2787402550394
 20
158.5537526720354
 30
0.0
 10
77.255429838464
 20
158.534677034335
 30
0.0
  0
SPLINE
  5
1AD
330
1F
100
AcDbEntity
  8
0
  6
Continuous
 62
     7
370
    15
100
AcDbSpline
210
0.0
220
0.0
230
1.0
 70
     8
 71
     3
 72
    15
 73
    11
 74
     0
 42
0.00000001
 43
0.00000001
 12
1.0
 22
0.0
 32
0.0
 13
1.0
 23
0.0
 33
0.0
 40
0.0
 40
0.0
 40
0.0
 40
0.0
 40
0.1099838451118721
 40
0.2225804973638859
 40
0.3384998709624409
 40
0.4587085654776241
 40
0.5855353464579971
 40
0.7175177429458813
 40
0.8546668197510171
 40
1.0
 40
1.0
 40
1.0
 40
1.0
 10
77.255429838464
 20
158.534677034335
 30
0.0
 10
77.23873655649963
 20
158.5195827187106
 30
0.0
 10
77.20495342227218
 20
158.4890355026567
 30
0.0
 10
77.15981290078288
 20
158.4364062961057
 30
0.0
 10
77.11659242809671
 20
158.3796547339437
 30
0.0
 10
77.07725877534403
 20
158.3166096093455
 30
0.0
 10
77.0411811888843
 20
158.247988830339
 30
0.0
 10
77.00742121170335
 20
158.1743711951042
 30
0.0
 10
76.97703479962173
 20
158.0951980648425
 30
0.0
 10
76.95993868958826
 20
158.0400256256142
 30
0.0
 10
76.95114297948963
 20
158.0116401753606
 30
0.0
  0
SPLINE
  5
1AE
330
1F
100
AcDbEntity
  8
0
  6
Continuous
 62
     7
370
    15
100
AcDbSpline
210
0.0
220
0.0
230
1.0
 70
     8
 71
     3
 72
    23
 73
    19
 74
     0
 42
0.00000001
 43
0.00000001
 12
1.0
 22
0.0
 32
0.0
 13
1.0
 23
0.0
 33
0.0
 40
0.0
 40
0.0
 40
0.0
 40
0.0
 40
0.0618417029839144
 40
0.1212623730944461
 40
0.1807459488653229
 40
0.239230901822108
 40
0.2983075587884638
 40
0.3581827976158442
 40
0.4203592307800713
 40
0.4847924155141862
 40
0.5499384837666883
 40
0.6137182775404302
 40
0.6766807072496293
 40
0.7391541704483163
 40
0.8021997032403533
 40
0.8667401776162988
 40
0.932049652400246
 40
1.0
 40
1.0
 40
1.0
 40
1.0
 10
72.61049794743836
 20
164.2826738292068
 30
0.0
 10
72.61112430891873
 20
164.2590238493238
 30
0.0
 10
72.61235251053448
 20
164.2126497595774
 30
0.0
 10
72.62350483040308
 20
164.144310580008
 30
0.0
 10
72.64053991272677
 20
164.0785456716054
 30
0.0
 10
72.6658803085876
 20
164.0156940728214
 30
0.0
 10
72.69610719675246
 20
163.954797754789
 30
0.0
 10
72.73601252094153
 20
163.8980624693172
 30
0.0
 10
72.7802293067734
 20
163.8420423992239
 30
0.0
 10
72.83308324022124
 20
163.7910409277972
 30
0.0
 10
72.8898066031999
 20
163.7435843036214
 30
0.0
 10
72.95040780570578
 20
163.7021040501036
 30
0.0
 10
73.01356776556281
 20
163.6666178767055
 30
0.0
 10
73.08013918763793
 20
163.638806779088
 30
0.0
 10
73.14917757160562
 20
163.6159824922408
 30
0.0
 10
73.22125812565164
 20
163.5999210129827
 30
0.0
 10
73.29643098118261
 20
163.5908404869869
 30
0.0
 10
73.34735291920431
 20
163.5893322933797
 30
0.0
 10
73.37331846025889
 20
163.5885632522837
 30
0.0
  0
SPLINE
  5
1AF
330
1F
100
AcDbEntity
  8
0
  6
Continuous
 62
     7
370
    15
100
AcDbSpline
210
0.0
220
0.0
230
1.0
 70
     8
 71
     3
 72
    23
 73
    19
 74
     0
 42
0.00000001
 43
0.00000001
 12
1.0
 22
0.0
 32
0.0
 13
1.0
 23
0.0
 33
0.0
 40
0.0
 40
0.0
 40
0.0
 40
0.0
 40
0.0705992894335923
 40
0.1379009210036184
 40
0.2031961978097349
 40
0.266789724650263
 40
0.3291063872214244
 40
0.3906535452348643
 40
0.4526530569344789
 40
0.5157480403003699
 40
0.5779263408004588
 40
0.6389300116184503
 40
0.6983507176418228
 40
0.7572960374442697
 40
0.8163937673501579
 40
0.8762669096141289
 40
0.9368171089060909
 40
1.0
 40
1.0
 40
1.0
 40
1.0
 10
73.34597471025887
 20
164.9795888933094
 30
0.0
 10
73.31931246542706
 20
164.9788108496268
 30
0.0
 10
73.26723335602199
 20
164.9772911042969
 30
0.0
 10
73.1908259413008
 20
164.9684658523719
 30
0.0
 10
73.11851268985306
 20
164.9518467867911
 30
0.0
 10
73.04933555620241
 20
164.9306804548285
 30
0.0
 10
72.98458785329626
 20
164.9015773951129
 30
0.0
 10
72.92379901344798
 20
164.8662255961578
 30
0.0
 10
72.86673396156009
 20
164.8246044180111
 30
0.0
 10
72.81399040983094
 20
164.7773035069075
 30
0.0
 10
72.76617074648055
 20
164.7255154739204
 30
0.0
 10
72.72498961571172
 20
164.6700459517444
 30
0.0
 10
72.68946721561883
 20
164.6122317486385
 30
0.0
 10
72.66058539673612
 20
164.5515898064416
 30
0.0
 10
72.63809532097038
 20
164.4881433068521
 30
0.0
 10
72.62182707010042
 20
164.4221840574703
 30
0.0
 10
72.61277331887938
 20
164.3532697513442
 30
0.0
 10
72.61126708737395
 20
164.3065372486146
 30
0.0
 10
72.61049794743836
 20
164.2826738292068
 30
0.0
  0
SPLINE
  5
1B0
330
1F
100
AcDbEntity
  8
0
  6
Continuous
 62
     7
370
    15
100
AcDbSpline
210
0.0
220
0.0
230
1.0
 70
     8
 71
     3
 72
    23
 73
    19
 74
     0
 42
0.00000001
 43
0.00000001
 12
1.0
 22
0.0
 32
0.0
 13
1.0
 23
0.0
 33
0.0
 40
0.0
 40
0.0
 40
0.0
 40
0.0
 40
0.0611379149156145
 40
0.1199938438512141
 40
0.1782253215076126
 40
0.2362564202618997
 40
0.2949293769549086
 40
0.3547157488097514
 40
0.4167296639241584
 40
0.4806644084708296
 40
0.5458317702108698
 40
0.6097581054261619
 40
0.67297122847422
 40
0.736016869167664
 40
0.7998393981920299
 40
0.8647753566655666
 40
0.9310876232725691
 40
1.0
 40
1.0
 40
1.0
 40
1.0
 10
74.13613897307938
 20
164.2826738292068
 30
0.0
 10
74.13558868008438
 20
164.306568380124
 30
0.0
 10
74.1345086339002
 20
164.3534656126453
 30
0.0
 10
74.1222926853186
 20
164.4221532308813
 30
0.0
 10
74.10535031145838
 20
164.4884784371029
 30
0.0
 10
74.07976728074868
 20
164.5520243861363
 30
0.0
 10
74.04653073600826
 20
164.6125403133769
 30
0.0
 10
74.00604732897753
 20
164.6703319142934
 30
0.0
 10
73.95921475866709
 20
164.7258422615967
 30
0.0
 10
73.90511721907386
 20
164.7774050699718
 30
0.0
 10
73.84622698512284
 20
164.824552147909
 30
0.0
 10
73.78361139974993
 20
164.866171704307
 30
0.0
 10
73.71810342605148
 20
164.9012966809774
 30
0.0
 10
73.64976948360824
 20
164.930603783244
 30
0.0
 10
73.57782660095843
 20
164.9517532573756
 30
0.0
 10
73.50343626177259
 20
164.968406500444
 30
0.0
 10
73.42564701912849
 20
164.9772685181698
 30
0.0
 10
73.37287041081287
 20
164.9788055833261
 30
0.0
 10
73.34597471025887
 20
164.9795888933094
 30
0.0
  0
SPLINE
  5
1B1
330
1F
100
AcDbEntity
  8
0
  6
Continuous
 62
     7
370
    15
100
AcDbSpline
210
0.0
220
0.0
230
1.0
 70
     8
 71
     3
 72
    23
 73
    19
 74
     0
 42
0.00000001
 43
0.00000001
 12
1.0
 22
0.0
 32
0.0
 13
1.0
 23
0.0
 33
0.0
 40
0.0
 40
0.0
 40
0.0
 40
0.0
 40
0.0679623714944531
 40
0.1332834028675213
 40
0.1978352977570527
 40
0.2608919865309868
 40
0.3233765044831771
 40
0.3863500754690841
 40
0.4496377310517096
 40
0.5147953269783531
 40
0.5792399132410252
 40
0.6418141777582917
 40
0.7013585647860591
 40
0.7607267659857172
 40
0.8192220679243811
 40
0.8787161693846298
 40
0.9381473540533024
 40
1.0
 40
1.0
 40
1.0
 40
1.0
 10
73.37331846025889
 20
163.5885632522837
 30
0.0
 10
73.399283958775
 20
163.5893323536775
 30
0.0
 10
73.45020581337309
 20
163.5908406655369
 30
0.0
 10
73.52537927360353
 20
163.599920334377
 30
0.0
 10
73.59745759223836
 20
163.6159849823092
 30
0.0
 10
73.6665041008332
 20
163.6387977525746
 30
0.0
 10
73.73304553189907
 20
163.6666513621628
 30
0.0
 10
73.7961502534093
 20
163.701883281902
 30
0.0
 10
73.85617834695461
 20
163.7438393996534
 30
0.0
 10
73.91293894650188
 20
163.7909598278787
 30
0.0
 10
73.96557288484101
 20
163.842332679831
 30
0.0
 10
74.01085016371309
 20
163.8975624022579
 30
0.0
 10
74.04953339695422
 20
163.9552562975851
 30
0.0
 10
74.08096758402209
 20
164.0154541874663
 30
0.0
 10
74.1060288753396
 20
164.0785836751018
 30
0.0
 10
74.12315034253054
 20
164.1443003990207
 30
0.0
 10
74.13427963145467
 20
164.2126524249855
 30
0.0
 10
74.13551099769532
 20
164.2590247495407
 30
0.0
 10
74.13613897307938
 20
164.2826738292068
 30
0.0
  0
ENDSEC
  0
SECTION
  2
OBJECTS
  0
DICTIONARY
  5
C
330
0
100
AcDbDictionary
281
     1
  3
ACAD_GROUP
350
D
  3
ACAD_LAYOUT
350
1A
  3
ACAD_MLINESTYLE
350
17
  3
ACAD_PLOTSETTINGS
350
19
  3
ACAD_PLOTSTYLENAME
350
E
  0
DICTIONARY
  5
D
102
{ACAD_REACTORS
330
C
102
}
330
C
100
AcDbDictionary
281
     1
  0
DICTIONARY
  5
1A
102
{ACAD_REACTORS
330
C
102
}
330
C
100
AcDbDictionary
281
     1
  3
Layout1
350
1E
  3
Layout2
350
26
  3
Model
350
22
  0
DICTIONARY
  5
17
102
{ACAD_REACTORS
330
C
102
}
330
C
100
AcDbDictionary
281
     1
  3
Standard
350
18
  0
DICTIONARY
  5
19
102
{ACAD_REACTORS
330
C
102
}
330
C
100
AcDbDictionary
281
     1
  0
ACDBDICTIONARYWDFLT
  5
E
102
{ACAD_REACTORS
330
C
102
}
330
C
100
AcDbDictionary
281
     1
  3
Normal
350
F
100
AcDbDictionaryWithDefault
340
F
  0
LAYOUT
  5
1E
102
{ACAD_REACTORS
330
1A
102
}
330
1A
100
AcDbPlotSettings
  1

  2
none_device
  4

  6

 40
0.0
 41
0.0
 42
0.0
 43
0.0
 44
0.0
 45
0.0
 46
0.0
 47
0.0
 48
0.0
 49
0.0
140
0.0
141
0.0
142
1.0
143
1.0
 70
   688
 72
     0
 73
     0
 74
     5
  7

 75
    16
147
1.0
148
0.0
149
0.0
100
AcDbLayout
  1
Layout1
 70
     1
 71
     1
 10
0.0
 20
0.0
 11
420.0
 21
297.0
 12
0.0
 22
0.0
 32
0.0
 14
1.0000000000E+20
 24
1.0000000000E+20
 34
1.0000000000E+20
 15
-1.0000000000E+20
 25
-1.0000000000E+20
 35
-1.0000000000E+20
146
0.0
 13
0.0
 23
0.0
 33
0.0
 16
1.0
 26
0.0
 36
0.0
 17
0.0
 27
1.0
 37
0.0
 76
     0
330
1B
  0
LAYOUT
  5
26
102
{ACAD_REACTORS
330
1A
102
}
330
1A
100
AcDbPlotSettings
  1

  2
none_device
  4

  6

 40
0.0
 41
0.0
 42
0.0
 43
0.0
 44
0.0
 45
0.0
 46
0.0
 47
0.0
 48
0.0
 49
0.0
140
0.0
141
0.0
142
1.0
143
1.0
 70
   688
 72
     0
 73
     0
 74
     5
  7

 75
    16
147
1.0
148
0.0
149
0.0
100
AcDbLayout
  1
Layout2
 70
     1
 71
     2
 10
0.0
 20
0.0
 11
0.0
 21
0.0
 12
0.0
 22
0.0
 32
0.0
 14
0.0
 24
0.0
 34
0.0
 15
0.0
 25
0.0
 35
0.0
146
0.0
 13
0.0
 23
0.0
 33
0.0
 16
1.0
 26
0.0
 36
0.0
 17
0.0
 27
1.0
 37
0.0
 76
     0
330
23
  0
LAYOUT
  5
22
102
{ACAD_REACTORS
330
1A
102
}
330
1A
100
AcDbPlotSettings
  1

  2
none_device
  4

  6

 40
0.0
 41
0.0
 42
0.0
 43
0.0
 44
0.0
 45
0.0
 46
0.0
 47
0.0
 48
0.0
 49
0.0
140
0.0
141
0.0
142
1.0
143
1.0
 70
  1712
 72
     0
 73
     0
 74
     0
  7

 75
     0
147
1.0
148
0.0
149
0.0
100
AcDbLayout
  1
Model
 70
     1
 71
     0
 10
0.0
 20
0.0
 11
297.0
 21
210.0
 12
0.0
 22
0.0
 32
0.0
 14
0.0
 24
0.0
 34
0.0
 15
297.0
 25
210.0
 35
0.0
146
0.0
 13
0.0
 23
0.0
 33
0.0
 16
1.0
 26
0.0
 36
0.0
 17
0.0
 27
1.0
 37
0.0
 76
     0
330
1F
331
29
  0
MLINESTYLE
  5
18
102
{ACAD_REACTORS
330
17
102
}
330
17
100
AcDbMlineStyle
  2
Standard
 70
     0
  3

 62
   256
 51
90.0
 52
90.0
 71
     2
 49
0.5
 62
   256
  6
BYLAYER
 49
-0.5
 62
   256
  6
BYLAYER
  0
ACDBPLACEHOLDER
  5
F
102
{ACAD_REACTORS
330
E
102
}
330
E
  0
ENDSEC
  0
EOF
