  0
SECTION
  2
HEADER
  9
$ACADVER
  1
AC1015
  9
$ACADMAINTVER
 70
     6
  9
$DWGCODEPAGE
  3
ANSI_1252
  9
$INSBASE
 10
0.0
 20
0.0
 30
0.0
  9
$EXTMIN
 10
0.0
 20
0.0
 30
0.0
  9
$EXTMAX
 10
297.0
 20
210.0
 30
0.0
  9
$LIMMIN
 10
0.0
 20
0.0
  9
$LIMMAX
 10
297.0
 20
210.0
  9
$ORTHOMODE
 70
     0
  9
$REGENMODE
 70
     1
  9
$FILLMODE
 70
     1
  9
$QTEXTMODE
 70
     0
  9
$MIRRTEXT
 70
     1
  9
$LTSCALE
 40
1.0
  9
$ATTMODE
 70
     1
  9
$TEXTSIZE
 40
3.5
  9
$TRACEWID
 40
1.0
  9
$TEXTSTYLE
  7
Standard
  9
$CLAYER
  8
0
  9
$CELTYPE
  6
ByLayer
  9
$CECOLOR
 62
   256
  9
$CELTSCALE
 40
1.0
  9
$DISPSILH
 70
     0
  9
$DIMSCALE
 40
1.0
  9
$DIMASZ
 40
3.302
  9
$DIMEXO
 40
1.0
  9
$DIMDLI
 40
3.75
  9
$DIMRND
 40
0.0
  9
$DIMDLE
 40
0.0
  9
$DIMEXE
 40
1.0
  9
$DIMTP
 40
0.0
  9
$DIMTM
 40
0.0
  9
$DIMTXT
 40
3.5
  9
$DIMCEN
 40
2.5
  9
$DIMTSZ
 40
0.0
  9
$DIMTOL
 70
     0
  9
$DIMLIM
 70
     0
  9
$DIMTIH
 70
     1
  9
$DIMTOH
 70
     1
  9
$DIMSE1
 70
     0
  9
$DIMSE2
 70
     0
  9
$DIMTAD
 70
     1
  9
$DIMZIN
 70
     0
  9
$DIMBLK
  1

  9
$DIMASO
 70
     1
  9
$DIMSHO
 70
     1
  9
$DIMPOST
  1

  9
$DIMAPOST
  1

  9
$DIMALT
 70
     0
  9
$DIMALTD
 70
     3
  9
$DIMALTF
 40
0.0393700787
  9
$DIMLFAC
 40
1.0
  9
$DIMTOFL
 70
     1
  9
$DIMTVP
 40
0.0
  9
$DIMTIX
 70
     0
  9
$DIMSOXD
 70
     0
  9
$DIMSAH
 70
     0
  9
$DIMBLK1
  1

  9
$DIMBLK2
  1

  9
$DIMSTYLE
  2
ISO-25
  9
$DIMCLRD
 70
     0
  9
$DIMCLRE
 70
     0
  9
$DIMCLRT
 70
     0
  9
$DIMTFAC
 40
1.0
  9
$DIMGAP
 40
1.524
  9
$DIMJUST
 70
     0
  9
$DIMSD1
 70
     0
  9
$DIMSD2
 70
     0
  9
$DIMTOLJ
 70
     0
  9
$DIMTZIN
 70
     0
  9
$DIMALTZ
 70
     0
  9
$DIMALTTZ
 70
     0
  9
$DIMUPT
 70
     0
  9
$DIMDEC
 70
     2
  9
$DIMTDEC
 70
     2
  9
$DIMALTU
 70
     2
  9
$DIMALTTD
 70
     3
  9
$DIMTXSTY
  7
Standard
  9
$DIMAUNIT
 70
     0
  9
$DIMADEC
 70
     2
  9
$DIMALTRND
 40
0.0
  9
$DIMAZIN
 70
     0
  9
$DIMDSEP
 70
    44
  9
$DIMATFIT
 70
     3
  9
$DIMFRAC
 70
     0
  9
$DIMLDRBLK
  1

  9
$DIMLUNIT
 70
     2
  9
$DIMLWD
 70
    -2
  9
$DIMLWE
 70
    -2
  9
$DIMTMOVE
 70
     0
  9
$LUNITS
 70
     2
  9
$LUPREC
 70
     2
  9
$SKETCHINC
 40
1.0
  9
$FILLETRAD
 40
10.0
  9
$AUNITS
 70
     0
  9
$AUPREC
 70
     2
  9
$MENU
  1
.
  9
$ELEVATION
 40
0.0
  9
$PELEVATION
 40
0.0
  9
$THICKNESS
 40
0.0
  9
$LIMCHECK
 70
     0
  9
$CHAMFERA
 40
10.0
  9
$CHAMFERB
 40
10.0
  9
$CHAMFERC
 40
20.0
  9
$CHAMFERD
 40
0.0
  9
$SKPOLY
 70
     0
  9
$TDCREATE
 40
2456836.980941782
  9
$TDUCREATE
 40
2456836.897608449
  9
$TDUPDATE
 40
2456836.980942327
  9
$TDUUPDATE
 40
2456836.897608993
  9
$TDINDWG
 40
0.0000000116
  9
$TDUSRTIMER
 40
0.0000000116
  9
$USRTIMER
 70
     1
  9
$ANGBASE
 50
0.0
  9
$ANGDIR
 70
     0
  9
$PDMODE
 70
     0
  9
$PDSIZE
 40
-1.0
  9
$PLINEWID
 40
0.0
  9
$SPLFRAME
 70
     0
  9
$SPLINETYPE
 70
     6
  9
$SPLINESEGS
 70
     8
  9
$HANDSEED
  5
1B1
  9
$SURFTAB1
 70
     6
  9
$SURFTAB2
 70
     6
  9
$SURFTYPE
 70
     6
  9
$SURFU
 70
     6
  9
$SURFV
 70
     6
  9
$UCSBASE
  2

  9
$UCSNAME
  2

  9
$UCSORG
 10
0.0
 20
0.0
 30
0.0
  9
$UCSXDIR
 10
1.0
 20
0.0
 30
0.0
  9
$UCSYDIR
 10
0.0
 20
1.0
 30
0.0
  9
$UCSORTHOREF
  2

  9
$UCSORTHOVIEW
 70
     0
  9
$UCSORGTOP
 10
0.0
 20
0.0
 30
0.0
  9
$UCSORGBOTTOM
 10
0.0
 20
0.0
 30
0.0
  9
$UCSORGLEFT
 10
0.0
 20
0.0
 30
0.0
  9
$UCSORGRIGHT
 10
0.0
 20
0.0
 30
0.0
  9
$UCSORGFRONT
 10
0.0
 20
0.0
 30
0.0
  9
$UCSORGBACK
 10
0.0
 20
0.0
 30
0.0
  9
$PUCSBASE
  2

  9
$PUCSNAME
  2

  9
$PUCSORG
 10
0.0
 20
0.0
 30
0.0
  9
$PUCSXDIR
 10
1.0
 20
0.0
 30
0.0
  9
$PUCSYDIR
 10
0.0
 20
1.0
 30
0.0
  9
$PUCSORTHOREF
  2

  9
$PUCSORTHOVIEW
 70
     0
  9
$PUCSORGTOP
 10
0.0
 20
0.0
 30
0.0
  9
$PUCSORGBOTTOM
 10
0.0
 20
0.0
 30
0.0
  9
$PUCSORGLEFT
 10
0.0
 20
0.0
 30
0.0
  9
$PUCSORGRIGHT
 10
0.0
 20
0.0
 30
0.0
  9
$PUCSORGFRONT
 10
0.0
 20
0.0
 30
0.0
  9
$PUCSORGBACK
 10
0.0
 20
0.0
 30
0.0
  9
$USERI1
 70
     0
  9
$USERI2
 70
     0
  9
$USERI3
 70
     0
  9
$USERI4
 70
     0
  9
$USERI5
 70
     0
  9
$USERR1
 40
0.0
  9
$USERR2
 40
0.0
  9
$USERR3
 40
0.0
  9
$USERR4
 40
0.0
  9
$USERR5
 40
0.0
  9
$WORLDVIEW
 70
     1
  9
$SHADEDGE
 70
     3
  9
$SHADEDIF
 70
    70
  9
$TILEMODE
 70
     1
  9
$MAXACTVP
 70
    64
  9
$PINSBASE
 10
0.0
 20
0.0
 30
0.0
  9
$PLIMCHECK
 70
     0
  9
$PEXTMIN
 10
1.0000000000E+20
 20
1.0000000000E+20
 30
1.0000000000E+20
  9
$PEXTMAX
 10
-1.0000000000E+20
 20
-1.0000000000E+20
 30
-1.0000000000E+20
  9
$PLIMMIN
 10
0.0
 20
0.0
  9
$PLIMMAX
 10
420.0
 20
297.0
  9
$UNITMODE
 70
     0
  9
$VISRETAIN
 70
     1
  9
$PLINEGEN
 70
     0
  9
$PSLTSCALE
 70
     1
  9
$TREEDEPTH
 70
  3020
  9
$CMLSTYLE
  2
Standard
  9
$CMLJUST
 70
     0
  9
$CMLSCALE
 40
20.0
  9
$PROXYGRAPHICS
 70
     1
  9
$MEASUREMENT
 70
     1
  9
$CELWEIGHT
370
    -1
  9
$ENDCAPS
280
     0
  9
$JOINSTYLE
280
     0
  9
$LWDISPLAY
290
     1
  9
$INSUNITS
 70
     4
  9
$HYPERLINKBASE
  1

  9
$STYLESHEET
  1

  9
$XEDIT
290
     1
  9
$CEPSNTYPE
380
     0
  9
$PSTYLEMODE
290
     1
  9
$FINGERPRINTGUID
  2
{B61C4649-F569-4758-B5AF-CF182270B67F}
  9
$VERSIONGUID
  2
{FAEB1C32-E019-11D5-929B-00C0DF256EC4}
  9
$EXTNAMES
290
     1
  9
$PSVPSCALE
 40
0.0
  9
$OLESTARTUP
290
     0
  0
ENDSEC
  0
SECTION
  2
CLASSES
  0
CLASS
  1
ACDBDICTIONARYWDFLT
  2
AcDbDictionaryWithDefault
  3
ObjectDBX Classes
 90
        0
280
     0
281
     0
  0
CLASS
  1
VISUALSTYLE
  2
AcDbVisualStyle
  3
ObjectDBX Classes
 90
     4095
280
     0
281
     0
  0
CLASS
  1
MATERIAL
  2
AcDbMaterial
  3
ObjectDBX Classes
 90
     1153
280
     0
281
     0
  0
CLASS
  1
ACDBPLACEHOLDER
  2
AcDbPlaceHolder
  3
ObjectDBX Classes
 90
        0
280
     0
281
     0
  0
CLASS
  1
LAYOUT
  2
AcDbLayout
  3
ObjectDBX Classes
 90
        0
280
     0
281
     0
  0
ENDSEC
  0
SECTION
  2
TABLES
  0
TABLE
  2
VPORT
  5
8
330
0
100
AcDbSymbolTable
 70
     1
  0
VPORT
  5
29
330
8
100
AcDbSymbolTableRecord
100
AcDbViewportTableRecord
  2
*Active
 70
     0
 10
0.0
 20
0.0
 11
1.0
 21
1.0
 12
148.5
 22
105.0
 13
0.0
 23
0.0
 14
10.0
 24
10.0
 15
10.0
 25
10.0
 16
0.0
 26
0.0
 36
1.0
 17
0.0
 27
0.0
 37
0.0
 40
210.0
 41
1.4142857143
 42
50.0
 43
0.0
 44
0.0
 50
0.0
 51
0.0
 71
     0
 72
  2000
 73
     1
 74
     3
 75
     0
 76
     0
 77
     0
 78
     0
281
     0
 65
     1
110
0.0
120
0.0
130
0.0
111
1.0
121
0.0
131
0.0
112
0.0
122
1.0
132
0.0
 79
     0
146
0.0
  0
ENDTAB
  0
TABLE
  2
LTYPE
  5
5
330
0
100
AcDbSymbolTable
 70
     6
  0
LTYPE
  5
14
330
5
100
AcDbSymbolTableRecord
100
AcDbLinetypeTableRecord
  2
ByBlock
 70
     0
  3

 72
    65
 73
     0
 40
0.0
  0
LTYPE
  5
15
330
5
100
AcDbSymbolTableRecord
100
AcDbLinetypeTableRecord
  2
ByLayer
 70
     0
  3

 72
    65
 73
     0
 40
0.0
  0
LTYPE
  5
16
330
5
100
AcDbSymbolTableRecord
100
AcDbLinetypeTableRecord
  2
Continuous
 70
     0
  3
Solid line
 72
    65
 73
     0
 40
0.0
  0
LTYPE
  5
3F
330
5
100
AcDbSymbolTableRecord
100
AcDbLinetypeTableRecord
  2
HIDDEN
 70
     0
  3
Hidden __ __ __ __ __ __ __ __ __ __ __ __ __ __
 72
    65
 73
     2
 40
1.905
 49
1.27
 74
     0
 49
-0.635
 74
     0
  0
LTYPE
  5
40
330
5
100
AcDbSymbolTableRecord
100
AcDbLinetypeTableRecord
  2
PHANTOM
 70
     0
  3
Phantom ______  __  __  ______  __  __  ______
 72
    65
 73
     6
 40
12.7
 49
6.35
 74
     0
 49
-1.27
 74
     0
 49
1.27
 74
     0
 49
-1.27
 74
     0
 49
1.27
 74
     0
 49
-1.27
 74
     0
  0
LTYPE
  5
41
330
5
100
AcDbSymbolTableRecord
100
AcDbLinetypeTableRecord
  2
CENTER
 70
     0
  3
Center ____ _ ____ _ ____ _ ____ _ ____ _ ____
 72
    65
 73
     4
 40
10.16
 49
6.35
 74
     0
 49
-1.27
 74
     0
 49
1.27
 74
     0
 49
-1.27
 74
     0
  0
LTYPE
  5
42
330
5
100
AcDbSymbolTableRecord
100
AcDbLinetypeTableRecord
  2
CENTERX2
 70
     0
  3
Center (2x) ________  __  ________  __  _____
 72
    65
 73
     4
 40
20.32
 49
12.7
 74
     0
 49
-2.54
 74
     0
 49
2.54
 74
     0
 49
-2.54
 74
     0
  0
LTYPE
  5
43
330
5
100
AcDbSymbolTableRecord
100
AcDbLinetypeTableRecord
  2
DOT2
 70
     0
  3
Dot (.5x) ........................................
 72
    65
 73
     2
 40
0.635
 49
0.0
 74
     0
 49
-0.635
 74
     0
  0
ENDTAB
  0
TABLE
  2
LAYER
  5
2
330
0
100
AcDbSymbolTable
 70
     1
  0
LAYER
  5
10
330
2
100
AcDbSymbolTableRecord
100
AcDbLayerTableRecord
  2
0
 70
     0
 62
     7
  6
Continuous
370
    -3
390
F
  0
ENDTAB
  0
TABLE
  2
STYLE
  5
3
330
0
100
AcDbSymbolTable
 70
     1
  0
STYLE
  5
11
330
3
100
AcDbSymbolTableRecord
100
AcDbTextStyleTableRecord
  2
Standard
 70
     0
 40
0.0
 41
1.0
 50
0.0
 71
     0
 42
3.5
  3
txt
  4

  0
ENDTAB
  0
TABLE
  2
VIEW
  5
6
330
0
100
AcDbSymbolTable
 70
     0
  0
ENDTAB
  0
TABLE
  2
UCS
  5
7
330
0
100
AcDbSymbolTable
 70
     0
  0
ENDTAB
  0
TABLE
  2
APPID
  5
9
330
0
100
AcDbSymbolTable
 70
     1
  0
APPID
  5
12
330
9
100
AcDbSymbolTableRecord
100
AcDbRegAppTableRecord
  2
ACAD
 70
     0
  0
ENDTAB
  0
TABLE
  2
DIMSTYLE
  5
A
330
0
100
AcDbSymbolTable
 70
     1
100
AcDbDimStyleTable
  0
DIMSTYLE
105
27
330
A
100
AcDbSymbolTableRecord
100
AcDbDimStyleTableRecord
  2
ISO-25
 70
     0
 41
2.5
 42
0.625
 43
3.75
 44
1.25
 73
     0
 74
     0
 77
     1
 78
     8
140
2.5
141
2.5
143
0.0393700787
147
0.625
171
     3
172
     1
178
     0
271
     2
272
     2
274
     3
278
    44
283
     0
284
     8
340
11
  0
ENDTAB
  0
TABLE
  2
BLOCK_RECORD
  5
1
330
0
100
AcDbSymbolTable
 70
     1
  0
BLOCK_RECORD
  5
1F
330
1
100
AcDbSymbolTableRecord
100
AcDbBlockTableRecord
  2
*Model_Space
340
22
  0
BLOCK_RECORD
  5
1B
330
1
100
AcDbSymbolTableRecord
100
AcDbBlockTableRecord
  2
*Paper_Space
340
1E
  0
BLOCK_RECORD
  5
23
330
1
100
AcDbSymbolTableRecord
100
AcDbBlockTableRecord
  2
*Paper_Space0
340
26
  0
ENDTAB
  0
ENDSEC
  0
SECTION
  2
BLOCKS
  0
BLOCK
  5
20
330
1F
100
AcDbEntity
  8
0
100
AcDbBlockBegin
  2
*Model_Space
 70
     0
 10
0.0
 20
0.0
 30
0.0
  3
*Model_Space
  1

  0
ENDBLK
  5
21
330
1F
100
AcDbEntity
  8
0
100
AcDbBlockEnd
  0
BLOCK
  5
1C
330
1B
100
AcDbEntity
 67
     1
  8
0
100
AcDbBlockBegin
  2
*Paper_Space
 70
     0
 10
0.0
 20
0.0
 30
0.0
  3
*Paper_Space
  1

  0
ENDBLK
  5
1D
330
1B
100
AcDbEntity
 67
     1
  8
0
100
AcDbBlockEnd
  0
BLOCK
  5
24
330
23
100
AcDbEntity
  8
0
100
AcDbBlockBegin
  2
*Paper_Space0
 70
     0
 10
0.0
 20
0.0
 30
0.0
  3
*Paper_Space0
  1

  0
ENDBLK
  5
25
330
23
100
AcDbEntity
  8
0
100
AcDbBlockEnd
  0
ENDSEC
  0
SECTION
  2
ENTITIES
  0
CIRCLE
  5
44
330
1F
100
AcDbEntity
  8
0
  6
Continuous
 62
     7
370
    15
100
AcDbCircle
 10
167.9758536585
 20
102.9102439024
 30
0.0
 40
3.5
  0
CIRCLE
  5
45
330
1F
100
AcDbEntity
  8
0
  6
Continuous
 62
     7
370
    15
100
AcDbCircle
 10
92.9758536585
 20
102.9102439024
 30
0.0
 40
3.500000000000014
  0
LINE
  5
46
330
1F
100
AcDbEntity
  8
0
  6
Continuous
 62
     7
370
    15
100
AcDbLine
 10
86.2627311566
 20
142.5868624785
 30
0.0
 11
86.711447961
 21
142.5868624785
 31
0.0
  0
LINE
  5
47
330
1F
100
AcDbEntity
  8
0
  6
Continuous
 62
     7
370
    15
100
AcDbLine
 10
86.2627311566
 20
142.2727609017
 30
0.0
 11
86.2627311566
 21
142.5868624785
 31
0.0
  0
LINE
  5
48
330
1F
100
AcDbEntity
  8
0
  6
Continuous
 62
     7
370
    15
100
AcDbLine
 10
86.711447961
 20
142.2727609017
 30
0.0
 11
86.2627311566
 21
142.2727609017
 31
0.0
  0
LINE
  5
49
330
1F
100
AcDbEntity
  8
0
  6
Continuous
 62
     7
370
    15
100
AcDbLine
 10
86.711447961
 20
140.0291675665
 30
0.0
 11
86.711447961
 21
142.2727609017
 31
0.0
  0
LINE
  5
4A
330
1F
100
AcDbEntity
  8
0
  6
Continuous
 62
     7
370
    15
100
AcDbLine
 10
87.0255495378
 20
140.0291675665
 30
0.0
 11
86.711447961
 21
140.0291675665
 31
0.0
  0
LINE
  5
4B
330
1F
100
AcDbEntity
  8
0
  6
Continuous
 62
     7
370
    15
100
AcDbLine
 10
87.0255495378
 20
142.2727609017
 30
0.0
 11
87.0255495378
 21
140.0291675665
 31
0.0
  0
LINE
  5
4C
330
1F
100
AcDbEntity
  8
0
  6
Continuous
 62
     7
370
    15
100
AcDbLine
 10
87.4742682048
 20
142.2727609017
 30
0.0
 11
87.0255495378
 21
142.2727609017
 31
0.0
  0
LINE
  5
4D
330
1F
100
AcDbEntity
  8
0
  6
Continuous
 62
     7
370
    15
100
AcDbLine
 10
87.4742682048
 20
142.5868624785
 30
0.0
 11
87.4742682048
 21
142.2727609017
 31
0.0
  0
LINE
  5
4E
330
1F
100
AcDbEntity
  8
0
  6
Continuous
 62
     7
370
    15
100
AcDbLine
 10
87.0255495378
 20
142.5868624785
 30
0.0
 11
87.4742682048
 21
142.5868624785
 31
0.0
  0
LINE
  5
4F
330
1F
100
AcDbEntity
  8
0
  6
Continuous
 62
     7
370
    15
100
AcDbLine
 10
87.0255495378
 20
143.6189169028
 30
0.0
 11
87.0255495378
 21
142.5868624785
 31
0.0
  0
LINE
  5
50
330
1F
100
AcDbEntity
  8
0
  6
Continuous
 62
     7
370
    15
100
AcDbLine
 10
86.711447961
 20
143.6189169028
 30
0.0
 11
87.0255495378
 21
143.6189169028
 31
0.0
  0
LINE
  5
51
330
1F
100
AcDbEntity
  8
0
  6
Continuous
 62
     7
370
    15
100
AcDbLine
 10
86.711447961
 20
142.5868624785
 30
0.0
 11
86.711447961
 21
143.6189169028
 31
0.0
  0
LINE
  5
52
330
1F
100
AcDbEntity
  8
0
  6
Continuous
 62
     7
370
    15
100
AcDbLine
 10
80.6088841476
 20
140.0291675665
 30
0.0
 11
80.2947825708
 21
140.0291675665
 31
0.0
  0
LINE
  5
53
330
1F
100
AcDbEntity
  8
0
  6
Continuous
 62
     7
370
    15
100
AcDbLine
 10
80.6088841476
 20
140.9539485314
 30
0.0
 11
80.6088841476
 21
140.0291675665
 31
0.0
  0
SPLINE
  5
54
330
1F
100
AcDbEntity
  8
0
  6
Continuous
 62
     7
370
    15
100
AcDbSpline
210
0.0
220
0.0
230
1.0
 70
     8
 71
     3
 72
    15
 73
    11
 74
     0
 42
0.00000001
 43
0.00000001
 12
1.0
 22
0.0
 32
0.0
 13
1.0
 23
0.0
 33
0.0
 40
0.0
 40
0.0
 40
0.0
 40
0.0
 40
0.076995454717054
 40
0.1676150771831828
 40
0.271052393634233
 40
0.3894595025720776
 40
0.5208428024655803
 40
0.6663987586080737
 40
0.8260936125153078
 40
1.0
 40
1.0
 40
1.0
 40
1.0
 10
80.65726184284173
 20
141.6403477660423
 30
0.0
 10
80.65332219426605
 20
141.6230925629884
 30
0.0
 10
80.64474578540509
 20
141.585528888583
 30
0.0
 10
80.63548260554623
 20
141.5238844691984
 30
0.0
 10
80.62707503014454
 20
141.4525744942063
 30
0.0
 10
80.62003807152598
 20
141.3716821771504
 30
0.0
 10
80.6157326550554
 20
141.2809243020329
 30
0.0
 10
80.61103825828175
 20
141.1806884642289
 30
0.0
 10
80.60932919721536
 20
141.0705749758728
 30
0.0
 10
80.60903684319781
 20
140.993913283148
 30
0.0
 10
80.60888443899559
 20
140.9539495288628
 30
0.0
  0
SPLINE
  5
55
330
1F
100
AcDbEntity
  8
0
  6
Continuous
 62
     7
370
    15
100
AcDbSpline
210
0.0
220
0.0
230
1.0
 70
     8
 71
     3
 72
    23
 73
    19
 74
     0
 42
0.00000001
 43
0.00000001
 12
1.0
 22
0.0
 32
0.0
 13
1.0
 23
0.0
 33
0.0
 40
0.0
 40
0.0
 40
0.0
 40
0.0
 40
0.0639861098164686
 40
0.1266268580894775
 40
0.1889843719814858
 40
0.2502301939603954
 40
0.3123511629623212
 40
0.3745736184579407
 40
0.4381475308782055
 40
0.5029204126073734
 40
0.5679740951402741
 40
0.6307713337491904
 40
0.6929346089254589
 40
0.7543975343123256
 40
0.8152183520172982
 40
0.87611692548109
 40
0.9380146047939586
 40
1.0
 40
1.0
 40
1.0
 40
1.0
 10
81.52735399027763
 20
142.3176314198885
 30
0.0
 10
81.50208630667275
 20
142.3171554152249
 30
0.0
 10
81.452082213671
 20
142.3162134142945
 30
0.0
 10
81.37793224176485
 20
142.3067621162716
 30
0.0
 10
81.3060080685869
 20
142.2913036606732
 30
0.0
 10
81.23558785959212
 20
142.2704350231741
 30
0.0
 10
81.16808006585707
 20
142.2417727539513
 30
0.0
 10
81.1013157746769
 20
142.2092433837265
 30
0.0
 10
81.03780901054705
 20
142.1686951717411
 30
0.0
 10
80.97620561341857
 20
142.1235045503013
 30
0.0
 10
80.91889280576542
 20
142.0734253431038
 30
0.0
 10
80.86556446735476
 20
142.0205808329509
 30
0.0
 10
80.81802644710365
 20
141.9643052291548
 30
0.0
 10
80.77495777181997
 20
141.9055052816258
 30
0.0
 10
80.73777950844239
 20
141.8433734436286
 30
0.0
 10
80.70532642038008
 20
141.7785091371498
 30
0.0
 10
80.67779072558834
 20
141.7108269883259
 30
0.0
 10
80.6641080331185
 20
141.6638519270952
 30
0.0
 10
80.65726184284173
 20
141.6403477660423
 30
0.0
  0
SPLINE
  5
56
330
1F
100
AcDbEntity
  8
0
  6
Continuous
 62
     7
370
    15
100
AcDbSpline
210
0.0
220
0.0
230
1.0
 70
     8
 71
     3
 72
    15
 73
    11
 74
     0
 42
0.00000001
 43
0.00000001
 12
1.0
 22
0.0
 32
0.0
 13
1.0
 23
0.0
 33
0.0
 40
0.0
 40
0.0
 40
0.0
 40
0.0
 40
0.1355195283705981
 40
0.2608331631936689
 40
0.3784760291244969
 40
0.493177646474674
 40
0.6092809649289358
 40
0.729981037856645
 40
0.8592613089300648
 40
1.0
 40
1.0
 40
1.0
 40
1.0
 10
82.18710959925198
 20
141.8142259711705
 30
0.0
 10
82.17648406774566
 20
141.8539371561182
 30
0.0
 10
82.15603320707096
 20
141.9303689007428
 30
0.0
 10
82.10549922394583
 20
142.0340432533642
 30
0.0
 10
82.04168504315847
 20
142.1222414411935
 30
0.0
 10
81.96378719379328
 20
142.1944181628179
 30
0.0
 10
81.87255811815291
 20
142.2505889995229
 30
0.0
 10
81.76825097538509
 20
142.28956295425
 30
0.0
 10
81.65187233471276
 20
142.3139392234488
 30
0.0
 10
81.57001795203928
 20
142.3163663554642
 30
0.0
 10
81.52735399027763
 20
142.3176314198885
 30
0.0
  0
SPLINE
  5
57
330
1F
100
AcDbEntity
  8
0
  6
Continuous
 62
     7
370
    15
100
AcDbSpline
210
0.0
220
0.0
230
1.0
 70
     8
 71
     3
 72
    15
 73
    11
 74
     0
 42
0.00000001
 43
0.00000001
 12
1.0
 22
0.0
 32
0.0
 13
1.0
 23
0.0
 33
0.0
 40
0.0
 40
0.0
 40
0.0
 40
0.0
 40
0.178850019411152
 40
0.3421096489422886
 40
0.489825663368383
 40
0.6232544282245615
 40
0.7400796760857771
 40
0.8414826730699866
 40
0.9289076721840627
 40
1.0
 40
1.0
 40
1.0
 40
1.0
 10
82.2242690543802
 20
141.232294881427
 30
0.0
 10
82.22407584636126
 20
141.2671173263557
 30
0.0
 10
82.22370627230278
 20
141.3337267371296
 30
0.0
 10
82.22254062561824
 20
141.42909576032
 30
0.0
 10
82.21973081901527
 20
141.5155823387228
 30
0.0
 10
82.2157825060992
 20
141.5929797061282
 30
0.0
 10
82.21000347556998
 20
141.6612135426916
 30
0.0
 10
82.20398084421997
 20
141.7204228194301
 30
0.0
 10
82.19661586742302
 20
141.7705323618629
 30
0.0
 10
82.19005295428586
 20
141.800697444246
 30
0.0
 10
82.18710959925198
 20
141.8142259711705
 30
0.0
  0
LINE
  5
58
330
1F
100
AcDbEntity
  8
0
  6
Continuous
 62
     7
370
    15
100
AcDbLine
 10
82.2242687412
 20
140.0291675665
 30
0.0
 11
82.2242687412
 21
141.2322947719
 31
0.0
  0
LINE
  5
59
330
1F
100
AcDbEntity
  8
0
  6
Continuous
 62
     7
370
    15
100
AcDbLine
 10
82.5383721807
 20
140.0291675665
 30
0.0
 11
82.2242687412
 21
140.0291675665
 31
0.0
  0
LINE
  5
5A
330
1F
100
AcDbEntity
  8
0
  6
Continuous
 62
     7
370
    15
100
AcDbLine
 10
82.5383721807
 20
141.3353586533
 30
0.0
 11
82.5383721807
 21
140.0291675665
 31
0.0
  0
SPLINE
  5
5B
330
1F
100
AcDbEntity
  8
0
  6
Continuous
 62
     7
370
    15
100
AcDbSpline
210
0.0
220
0.0
230
1.0
 70
     8
 71
     3
 72
    23
 73
    19
 74
     0
 42
0.00000001
 43
0.00000001
 12
1.0
 22
0.0
 32
0.0
 13
1.0
 23
0.0
 33
0.0
 40
0.0
 40
0.0
 40
0.0
 40
0.0
 40
0.077240423616478
 40
0.1511781404663802
 40
0.223487983800397
 40
0.2955426441988692
 40
0.3669762546197856
 40
0.4371305254863825
 40
0.5070436156432703
 40
0.5785597335236752
 40
0.6166135446965545
 40
0.6587562369775256
 40
0.704491226114403
 40
0.7548031149051484
 40
0.8093316253185628
 40
0.8682744554728155
 40
0.9320728834092917
 40
0.9999999999999999
 40
0.9999999999999999
 40
0.9999999999999999
 40
0.9999999999999999
 10
81.58204149027763
 20
142.631733983991
 30
0.0
 10
81.62937212439418
 20
142.6299887885498
 30
0.0
 10
81.72200959215799
 20
142.6265730201063
 30
0.0
 10
81.85688765354006
 20
142.5995563289953
 30
0.0
 10
81.98286104722683
 20
142.5534110738707
 30
0.0
 10
82.09948060301492
 20
142.4901990034676
 30
0.0
 10
82.20460781637756
 20
142.4115925300638
 30
0.0
 10
82.29693266785372
 20
142.3200147483046
 30
0.0
 10
82.37329591523131
 20
142.214678665069
 30
0.0
 10
82.42449327823104
 20
142.1169555088325
 30
0.0
 10
82.45821892592201
 20
142.0302667145596
 30
0.0
 10
82.47945126343583
 20
141.9560199644609
 30
0.0
 10
82.4974822448952
 20
141.8733018132917
 30
0.0
 10
82.51311399291292
 20
141.7823622242374
 30
0.0
 10
82.52369110478034
 20
141.682564033985
 30
0.0
 10
82.53203339631163
 20
141.5743163419321
 30
0.0
 10
82.53801209059992
 20
141.4576542114365
 30
0.0
 10
82.53824929758666
 20
141.3769675840266
 30
0.0
 10
82.53837161848277
 20
141.3353597852731
 30
0.0
  0
SPLINE
  5
5C
330
1F
100
AcDbEntity
  8
0
  6
Continuous
 62
     7
370
    15
100
AcDbSpline
210
0.0
220
0.0
230
1.0
 70
     8
 71
     3
 72
    15
 73
    11
 74
     0
 42
0.00000001
 43
0.00000001
 12
1.0
 22
0.0
 32
0.0
 13
1.0
 23
0.0
 33
0.0
 40
0.0
 40
0.0
 40
0.0
 40
0.0
 40
0.1409759662687734
 40
0.2735687809631704
 40
0.3989883138042528
 40
0.519929781392435
 40
0.6381100215247476
 40
0.7565889007405968
 40
0.8768597544106055
 40
1.0
 40
1.0
 40
1.0
 40
1.0
 10
80.60888443899559
 20
142.1255240480936
 30
0.0
 10
80.6424220741277
 20
142.1673667709312
 30
0.0
 10
80.70750302517426
 20
142.2485640344212
 30
0.0
 10
80.81588735844969
 20
142.3552846089812
 30
0.0
 10
80.93043125877227
 20
142.443229834026
 30
0.0
 10
81.05043326225945
 20
142.5133336279703
 30
0.0
 10
81.17605627235938
 20
142.566180254119
 30
0.0
 10
81.30653454232247
 20
142.6043461852047
 30
0.0
 10
81.44264924841028
 20
142.6272310137443
 30
0.0
 10
81.53521368528381
 20
142.6302212440438
 30
0.0
 10
81.58204149027765
 20
142.631733983991
 30
0.0
  0
LINE
  5
5D
330
1F
100
AcDbEntity
  8
0
  6
Continuous
 62
     7
370
    15
100
AcDbLine
 10
80.6088841476
 20
142.5868624785
 30
0.0
 11
80.6088841476
 21
142.1255225279
 31
0.0
  0
LINE
  5
5E
330
1F
100
AcDbEntity
  8
0
  6
Continuous
 62
     7
370
    15
100
AcDbLine
 10
80.2947825708
 20
142.5868624785
 30
0.0
 11
80.6088841476
 21
142.5868624785
 31
0.0
  0
LINE
  5
5F
330
1F
100
AcDbEntity
  8
0
  6
Continuous
 62
     7
370
    15
100
AcDbLine
 10
80.2947825708
 20
140.0291675665
 30
0.0
 11
80.2947825708
 21
142.5868624785
 31
0.0
  0
LINE
  5
60
330
1F
100
AcDbEntity
  8
0
  6
Continuous
 62
     7
370
    15
100
AcDbLine
 10
78.2755504318
 20
140.0291675665
 30
0.0
 11
77.961448855
 21
140.0291675665
 31
0.0
  0
LINE
  5
61
330
1F
100
AcDbEntity
  8
0
  6
Continuous
 62
     7
370
    15
100
AcDbLine
 10
78.2755504318
 20
143.6189169028
 30
0.0
 11
78.2755504318
 21
140.0291675665
 31
0.0
  0
LINE
  5
62
330
1F
100
AcDbEntity
  8
0
  6
Continuous
 62
     7
370
    15
100
AcDbLine
 10
77.961448855
 20
143.6189169028
 30
0.0
 11
78.2755504318
 21
143.6189169028
 31
0.0
  0
LINE
  5
63
330
1F
100
AcDbEntity
  8
0
  6
Continuous
 62
     7
370
    15
100
AcDbLine
 10
77.961448855
 20
140.0291675665
 30
0.0
 11
77.961448855
 21
143.6189169028
 31
0.0
  0
LINE
  5
64
330
1F
100
AcDbEntity
  8
0
  6
Continuous
 62
     7
370
    15
100
AcDbLine
 10
73.6537559845
 20
140.0291675665
 30
0.0
 11
73.3396544077
 21
140.0291675665
 31
0.0
  0
LINE
  5
65
330
1F
100
AcDbEntity
  8
0
  6
Continuous
 62
     7
370
    15
100
AcDbLine
 10
73.6537559845
 20
140.8887485006
 30
0.0
 11
73.6537559845
 21
140.0291675665
 31
0.0
  0
SPLINE
  5
66
330
1F
100
AcDbEntity
  8
0
  6
Continuous
 62
     7
370
    15
100
AcDbSpline
210
0.0
220
0.0
230
1.0
 70
     8
 71
     3
 72
    15
 73
    11
 74
     0
 42
0.00000001
 43
0.00000001
 12
1.0
 22
0.0
 32
0.0
 13
1.0
 23
0.0
 33
0.0
 40
0.0
 40
0.0
 40
0.0
 40
0.0
 40
0.0708548685015414
 40
0.1569381495573541
 40
0.2586003949600865
 40
0.3758909295892008
 40
0.508166167698909
 40
0.6562378085782328
 40
0.8201767703979169
 40
1.0
 40
1.0
 40
1.0
 40
1.0
 10
73.7098459774571
 20
141.7665496891192
 30
0.0
 10
73.70511358409205
 20
141.7462725155405
 30
0.0
 10
73.6946316923971
 20
141.7013601169006
 30
0.0
 10
73.68444015455344
 20
141.6260115921788
 30
0.0
 10
73.67437063657692
 20
141.5369879334149
 30
0.0
 10
73.66727401822618
 20
141.4340413405313
 30
0.0
 10
73.66069597609889
 20
141.3174288966032
 30
0.0
 10
73.65698589387175
 20
141.1869729509795
 30
0.0
 10
73.653882753315
 20
141.0425395998375
 30
0.0
 10
73.6537996864441
 20
140.9415652466053
 30
0.0
 10
73.65375623386737
 20
140.8887452019398
 30
0.0
  0
SPLINE
  5
67
330
1F
100
AcDbEntity
  8
0
  6
Continuous
 62
     7
370
    15
100
AcDbSpline
210
0.0
220
0.0
230
1.0
 70
     8
 71
     3
 72
    19
 73
    15
 74
     0
 42
0.00000001
 43
0.00000001
 12
1.0
 22
0.0
 32
0.0
 13
1.0
 23
0.0
 33
0.0
 40
0.0
 40
0.0
 40
0.0
 40
0.0
 40
0.0938065293523325
 40
0.1913381281363388
 40
0.2951906166251709
 40
0.4103123367232955
 40
0.4719302510512787
 40
0.5364251593464359
 40
0.6031187283036339
 40
0.6741176724906007
 40
0.7493320232258878
 40
0.828283384171575
 40
0.9120398092627683
 40
0.9999999999999999
 40
0.9999999999999999
 40
0.9999999999999999
 40
0.9999999999999999
 10
74.21815927873917
 20
142.3176314198885
 30
0.0
 10
74.19295354522815
 20
142.3159513825199
 30
0.0
 10
74.14154115526341
 20
142.3125245932812
 30
0.0
 10
74.06605665585367
 20
142.2855857855143
 30
0.0
 10
73.99280945035233
 20
142.2420605454011
 30
0.0
 10
73.9346377880163
 20
142.1937894335503
 30
0.0
 10
73.8895955351415
 20
142.1472416360859
 30
0.0
 10
73.85745530961071
 20
142.1065932335189
 30
0.0
 10
73.82797256265704
 20
142.0610146019904
 30
0.0
 10
73.79980234225654
 20
142.0112849181871
 30
0.0
 10
73.77413604804741
 20
141.9565550721549
 30
0.0
 10
73.75018137884368
 20
141.897371858733
 30
0.0
 10
73.72852251592128
 20
141.8336667299631
 30
0.0
 10
73.71617227169705
 20
141.7892842097429
 30
0.0
 10
73.7098459774571
 20
141.7665496891192
 30
0.0
  0
SPLINE
  5
68
330
1F
100
AcDbEntity
  8
0
  6
Continuous
 62
     7
370
    15
100
AcDbSpline
210
0.0
220
0.0
230
1.0
 70
     8
 71
     3
 72
    11
 73
     7
 74
     0
 42
0.00000001
 43
0.00000001
 12
1.0
 22
0.0
 32
0.0
 13
1.0
 23
0.0
 33
0.0
 40
0.0
 40
0.0
 40
0.0
 40
0.0
 40
0.295138801369366
 40
0.5602299448882069
 40
0.7949833567409007
 40
1.0
 40
1.0
 40
1.0
 40
1.0
 10
74.37871616976481
 20
142.2720585032218
 30
0.0
 10
74.36360714862094
 20
142.278798769337
 30
0.0
 10
74.3349273340948
 20
142.2915930847462
 30
0.0
 10
74.29297276782604
 20
142.3067350948782
 30
0.0
 10
74.25429143109517
 20
142.3156510107264
 30
0.0
 10
74.2296478727323
 20
142.3170017281785
 30
0.0
 10
74.21815927873917
 20
142.3176314198885
 30
0.0
  0
LINE
  5
69
330
1F
100
AcDbEntity
  8
0
  6
Continuous
 62
     7
370
    15
100
AcDbLine
 10
74.5511914559
 20
142.5440961459
 30
0.0
 11
74.3787161031
 21
142.2720605471
 31
0.0
  0
SPLINE
  5
6A
330
1F
100
AcDbEntity
  8
0
  6
Continuous
 62
     7
370
    15
100
AcDbSpline
210
0.0
220
0.0
230
1.0
 70
     8
 71
     3
 72
    11
 73
     7
 74
     0
 42
0.00000001
 43
0.00000001
 12
1.0
 22
0.0
 32
0.0
 13
1.0
 23
0.0
 33
0.0
 40
0.0
 40
0.0
 40
0.0
 40
0.0
 40
0.2252775478670006
 40
0.4635231951764709
 40
0.7203235553269173
 40
1.0
 40
1.0
 40
1.0
 40
1.0
 10
74.27775463130328
 20
142.631733983991
 30
0.0
 10
74.29958095778996
 20
142.6305434573961
 30
0.0
 10
74.34449004299559
 20
142.6280938715566
 30
0.0
 10
74.41247263279985
 20
142.6108830469148
 30
0.0
 10
74.48251608470945
 20
142.5834050243617
 30
0.0
 10
74.52765847195998
 20
142.5575648016967
 30
0.0
 10
74.55119213130327
 20
142.5440937596321
 30
0.0
  0
SPLINE
  5
6B
330
1F
100
AcDbEntity
  8
0
  6
Continuous
 62
     7
370
    15
100
AcDbSpline
210
0.0
220
0.0
230
1.0
 70
     8
 71
     3
 72
    15
 73
    11
 74
     0
 42
0.00000001
 43
0.00000001
 12
1.0
 22
0.0
 32
0.0
 13
1.0
 23
0.0
 33
0.0
 40
0.0
 40
0.0
 40
0.0
 40
0.0
 40
0.1600594124854894
 40
0.3061123827401222
 40
0.4383665141302073
 40
0.5605414552552148
 40
0.6753172249527001
 40
0.7861136344281764
 40
0.8928417881050853
 40
1.0
 40
1.0
 40
1.0
 40
1.0
 10
73.65375623386737
 20
142.2103597852731
 30
0.0
 10
73.67694499261867
 20
142.245415613599
 30
0.0
 10
73.72129331355725
 20
142.3124596128936
 30
0.0
 10
73.79500624291099
 20
142.4011289138854
 30
0.0
 10
73.87050957418941
 20
142.4745439604968
 30
0.0
 10
73.94816476149195
 20
142.5330474792667
 30
0.0
 10
74.0285428614021
 20
142.5768605980905
 30
0.0
 10
74.10987981312009
 20
142.6089536331222
 30
0.0
 10
74.19345528297757
 20
142.6279309483594
 30
0.0
 10
74.24961720720543
 20
142.6304646073167
 30
0.0
 10
74.27775463130328
 20
142.6317339839911
 30
0.0
  0
LINE
  5
6C
330
1F
100
AcDbEntity
  8
0
  6
Continuous
 62
     7
370
    15
100
AcDbLine
 10
73.6537559845
 20
142.5868624785
 30
0.0
 11
73.6537559845
 21
142.2103622892
 31
0.0
  0
LINE
  5
6D
330
1F
100
AcDbEntity
  8
0
  6
Continuous
 62
     7
370
    15
100
AcDbLine
 10
73.3396544077
 20
142.5868624785
 30
0.0
 11
73.6537559845
 21
142.5868624785
 31
0.0
  0
LINE
  5
6E
330
1F
100
AcDbEntity
  8
0
  6
Continuous
 62
     7
370
    15
100
AcDbLine
 10
73.3396544077
 20
140.0291675665
 30
0.0
 11
73.3396544077
 21
142.5868624785
 31
0.0
  0
LINE
  5
6F
330
1F
100
AcDbEntity
  8
0
  6
Continuous
 62
     7
370
    15
100
AcDbLine
 10
66.0255507522
 20
140.0291675665
 30
0.0
 11
65.7114482441
 21
140.0291675665
 31
0.0
  0
LINE
  5
70
330
1F
100
AcDbEntity
  8
0
  6
Continuous
 62
     7
370
    15
100
AcDbLine
 10
66.0255507522
 20
141.1053890326
 30
0.0
 11
66.0255507522
 21
140.0291675665
 31
0.0
  0
SPLINE
  5
71
330
1F
100
AcDbEntity
  8
0
  6
Continuous
 62
     7
370
    15
100
AcDbSpline
210
0.0
220
0.0
230
1.0
 70
     8
 71
     3
 72
    23
 73
    19
 74
     0
 42
0.00000001
 43
0.00000001
 12
1.0
 22
0.0
 32
0.0
 13
1.0
 23
0.0
 33
0.0
 40
0.0
 40
0.0
 40
0.0
 40
0.0
 40
0.0686770684130356
 40
0.1368709585090951
 40
0.2061143571452983
 40
0.2775381819697254
 40
0.3497719775548979
 40
0.4212508361555692
 40
0.4929107569233701
 40
0.5670265889927354
 40
0.606614153241336
 40
0.649703953518985
 40
0.6973031504846849
 40
0.749085659709137
 40
0.8048806474593095
 40
0.8654850057023353
 40
0.9302371271531322
 40
1.0
 40
1.0
 40
1.0
 40
1.0
 10
66.85287482361096
 20
142.3176314198885
 30
0.0
 10
66.81485861215802
 20
142.3161009598714
 30
0.0
 10
66.73909365275185
 20
142.3130508074067
 30
0.0
 10
66.62779168309676
 20
142.2855965335581
 30
0.0
 10
66.52030599947906
 20
142.2425924587994
 30
0.0
 10
66.4183513006857
 20
142.1829326397134
 30
0.0
 10
66.32467715237946
 20
142.1090335611166
 30
0.0
 10
66.24266888508511
 20
142.0221186653447
 30
0.0
 10
66.17372635956096
 20
141.9232696318326
 30
0.0
 10
66.12799454465889
 20
141.8311051153171
 30
0.0
 10
66.09849607053731
 20
141.7495318404199
 30
0.0
 10
66.07890073585995
 20
141.6801808927459
 30
0.0
 10
66.06206111004778
 20
141.6031806444637
 30
0.0
 10
66.04954708834363
 20
141.5182935333794
 30
0.0
 10
66.03746667273596
 20
141.4260724392439
 30
0.0
 10
66.03163636365858
 20
141.3260579495342
 30
0.0
 10
66.02596480150426
 20
141.2183358618323
 30
0.0
 10
66.02569238680456
 20
141.1439633165904
 30
0.0
 10
66.02555110566225
 20
141.1053918365551
 30
0.0
  0
SPLINE
  5
72
330
1F
100
AcDbEntity
  8
0
  6
Continuous
 62
     7
370
    15
100
AcDbSpline
210
0.0
220
0.0
230
1.0
 70
     8
 71
     3
 72
    23
 73
    19
 74
     0
 42
0.00000001
 43
0.00000001
 12
1.0
 22
0.0
 32
0.0
 13
1.0
 23
0.0
 33
0.0
 40
0.0
 40
0.0
 40
0.0
 40
0.0
 40
0.0825297038220728
 40
0.1587788549175743
 40
0.2277380621151837
 40
0.2899456527966824
 40
0.345498838698138
 40
0.3938963373401196
 40
0.4363737851900928
 40
0.4721222744615275
 40
0.5363836155048252
 40
0.5990779017254985
 40
0.6619482340244581
 40
0.7263105423531532
 40
0.7917711030502091
 40
0.8586473037978587
 40
0.9273053338076832
 40
1.0
 40
1.0
 40
1.0
 40
1.0
 10
67.46144854155968
 20
141.3297508109141
 30
0.0
 10
67.46136911058342
 20
141.3664441296794
 30
0.0
 10
67.46121629336892
 20
141.4370383868603
 30
0.0
 10
67.45853997605259
 20
141.538272062171
 30
0.0
 10
67.45345335435648
 20
141.630353142264
 30
0.0
 10
67.44757280599033
 20
141.7131746060975
 30
0.0
 10
67.43911262747218
 20
141.7865859348581
 30
0.0
 10
67.4295028653624
 20
141.8509806928606
 30
0.0
 10
67.41815425483567
 20
141.9061974439438
 30
0.0
 10
67.39936437021463
 20
141.9667608288069
 30
0.0
 10
67.37064990192518
 20
142.033481751791
 30
0.0
 10
67.32446163993733
 20
142.1046227729734
 30
0.0
 10
67.26685405955628
 20
142.166890870496
 30
0.0
 10
67.19928318369176
 20
142.2200496189316
 30
0.0
 10
67.12327750150153
 20
142.26399110023
 30
0.0
 10
67.03929410069264
 20
142.2956508520165
 30
0.0
 10
66.94808918785616
 20
142.3140751416389
 30
0.0
 10
66.88521148194718
 20
142.3164236383146
 30
0.0
 10
66.85287482361096
 20
142.3176314198885
 30
0.0
  0
LINE
  5
73
330
1F
100
AcDbEntity
  8
0
  6
Continuous
 62
     7
370
    15
100
AcDbLine
 10
67.4614489966
 20
140.0291675665
 30
0.0
 11
67.4614489966
 21
141.3297483661
 31
0.0
  0
LINE
  5
74
330
1F
100
AcDbEntity
  8
0
  6
Continuous
 62
     7
370
    15
100
AcDbLine
 10
67.7755515047
 20
140.0291675665
 30
0.0
 11
67.4614489966
 21
140.0291675665
 31
0.0
  0
LINE
  5
75
330
1F
100
AcDbEntity
  8
0
  6
Continuous
 62
     7
370
    15
100
AcDbLine
 10
67.7755515047
 20
141.0240584948
 30
0.0
 11
67.7755515047
 21
140.0291675665
 31
0.0
  0
SPLINE
  5
76
330
1F
100
AcDbEntity
  8
0
  6
Continuous
 62
     7
370
    15
100
AcDbSpline
210
0.0
220
0.0
230
1.0
 70
     8
 71
     3
 72
    23
 73
    19
 74
     0
 42
0.00000001
 43
0.00000001
 12
1.0
 22
0.0
 32
0.0
 13
1.0
 23
0.0
 33
0.0
 40
0.0
 40
0.0
 40
0.0
 40
0.0
 40
0.0681582441559979
 40
0.1347066022023564
 40
0.2018649976035975
 40
0.2707882662774611
 40
0.340024294360492
 40
0.4080827390537227
 40
0.476813195258145
 40
0.5473460643071002
 40
0.5856397954238983
 40
0.6288649531777704
 40
0.6771532033637913
 40
0.7308028113651062
 40
0.7898066155325087
 40
0.8543250087420177
 40
0.9243651340575502
 40
1.0
 40
1.0
 40
1.0
 40
1.0
 10
68.60497818899557
 20
142.3176314198885
 30
0.0
 10
68.56530823462225
 20
142.3162152625019
 30
0.0
 10
68.4869053234363
 20
142.3134163971249
 30
0.0
 10
68.37245983722822
 20
142.2848425241617
 30
0.0
 10
68.26248882062124
 20
142.2417622735022
 30
0.0
 10
68.16027368769629
 20
142.1793298163787
 30
0.0
 10
68.06624589707955
 20
142.1045214525267
 30
0.0
 10
67.98534631929394
 20
142.0155718567673
 30
0.0
 10
67.91851413363217
 20
141.9149419298322
 30
0.0
 10
67.87326015769138
 20
141.8217952275165
 30
0.0
 10
67.84467085644653
 20
141.7381257836354
 30
0.0
 10
67.82579394070166
 20
141.6650284116374
 30
0.0
 10
67.8111105492318
 20
141.5819468438042
 30
0.0
 10
67.79734002002057
 20
141.48943935294
 30
0.0
 10
67.78835229205389
 20
141.386869172588
 30
0.0
 10
67.78018391972952
 20
141.2747107715882
 30
0.0
 10
67.77636305691557
 20
141.1526268121522
 30
0.0
 10
67.77582859815614
 20
141.0680001235384
 30
0.0
 10
67.77555110566225
 20
141.02406170835
 30
0.0
  0
SPLINE
  5
77
330
1F
100
AcDbEntity
  8
0
  6
Continuous
 62
     7
370
    15
100
AcDbSpline
210
0.0
220
0.0
230
1.0
 70
     8
 71
     3
 72
    23
 73
    19
 74
     0
 42
0.00000001
 43
0.00000001
 12
1.0
 22
0.0
 32
0.0
 13
1.0
 23
0.0
 33
0.0
 40
0.0
 40
0.0
 40
0.0
 40
0.0
 40
0.0783429851936998
 40
0.1505633028794195
 40
0.2161510566599787
 40
0.2756797924514213
 40
0.3287070503654635
 40
0.3759044348322066
 40
0.4173018977400305
 40
0.4526927480535819
 40
0.5172652917530158
 40
0.5812165680623057
 40
0.6453218939727982
 40
0.7120244933797659
 40
0.7801300447160427
 40
0.8502182262116641
 40
0.9226485217347371
 40
1.0
 40
1.0
 40
1.0
 40
1.0
 10
69.21144854155968
 20
141.4159887916834
 30
0.0
 10
69.21137065858366
 20
141.4487093656208
 30
0.0
 10
69.21122097934843
 20
141.5115933324743
 30
0.0
 10
69.20852734778424
 20
141.601845783682
 30
0.0
 10
69.20345203372855
 20
141.684114140925
 30
0.0
 10
69.19751739496148
 20
141.7582862290685
 30
0.0
 10
69.18927358558092
 20
141.8245350175652
 30
0.0
 10
69.17862765384625
 20
141.8827274361333
 30
0.0
 10
69.16734997394751
 20
141.9333212474939
 30
0.0
 10
69.14861398283868
 20
141.9894072950921
 30
0.0
 10
69.11866609122285
 20
142.0512775055753
 30
0.0
 10
69.07304861118979
 20
142.1180010813706
 30
0.0
 10
69.01557850492505
 20
142.1760818815538
 30
0.0
 10
68.94921834836191
 20
142.2265001983719
 30
0.0
 10
68.87366990366824
 20
142.2674938394698
 30
0.0
 10
68.79040518050346
 20
142.2967698491723
 30
0.0
 10
68.699941128909
 20
142.3148927275847
 30
0.0
 10
68.6373183404983
 20
142.3166987431611
 30
0.0
 10
68.60497818899557
 20
142.3176314198885
 30
0.0
  0
LINE
  5
78
330
1F
100
AcDbEntity
  8
0
  6
Continuous
 62
     7
370
    15
100
AcDbLine
 10
69.2114488178
 20
140.0291675665
 30
0.0
 11
69.2114488178
 21
141.4159888365
 31
0.0
  0
LINE
  5
79
330
1F
100
AcDbEntity
  8
0
  6
Continuous
 62
     7
370
    15
100
AcDbLine
 10
69.5255513259
 20
140.0291675665
 30
0.0
 11
69.2114488178
 21
140.0291675665
 31
0.0
  0
LINE
  5
7A
330
1F
100
AcDbEntity
  8
0
  6
Continuous
 62
     7
370
    15
100
AcDbLine
 10
69.5255513259
 20
141.4145881274
 30
0.0
 11
69.5255513259
 21
140.0291675665
 31
0.0
  0
SPLINE
  5
7B
330
1F
100
AcDbEntity
  8
0
  6
Continuous
 62
     7
370
    15
100
AcDbSpline
210
0.0
220
0.0
230
1.0
 70
     8
 71
     3
 72
    23
 73
    19
 74
     0
 42
0.00000001
 43
0.00000001
 12
1.0
 22
0.0
 32
0.0
 13
1.0
 23
0.0
 33
0.0
 40
0.0
 40
0.0
 40
0.0
 40
0.0
 40
0.0756043304957456
 40
0.1479650154827353
 40
0.2187969985236991
 40
0.2894704453213794
 40
0.3597242180874991
 40
0.4297077387530457
 40
0.5004965198485851
 40
0.574429019867952
 40
0.6139472962286702
 40
0.6571552698261071
 40
0.7039727697209356
 40
0.7549389848168007
 40
0.8097066112894876
 40
0.8688329536985481
 40
0.9323854739326017
 40
1.0
 40
1.0
 40
1.0
 40
1.0
 10
68.65966568899557
 20
142.631733983991
 30
0.0
 10
68.70254715181413
 20
142.6301167631333
 30
0.0
 10
68.78647033806901
 20
142.6269517048929
 30
0.0
 10
68.90864760378184
 20
142.6020982315575
 30
0.0
 10
69.02258940910622
 20
142.5594205844398
 30
0.0
 10
69.12806648523568
 20
142.5011869478694
 30
0.0
 10
69.22322629864482
 20
142.4280077645651
 30
0.0
 10
69.30594260782871
 20
142.3409389269472
 30
0.0
 10
69.37571297116473
 20
142.2405963039359
 30
0.0
 10
69.42129161086163
 20
142.1462043152418
 30
0.0
 10
69.45220687509155
 20
142.0628689823934
 30
0.0
 10
69.47126810941747
 20
141.9918626910853
 30
0.0
 10
69.48810780450401
 20
141.9137111381652
 30
0.0
 10
69.50208904976704
 20
141.828320876662
 30
0.0
 10
69.51230760186272
 20
141.7353902683592
 30
0.0
 10
69.51987831735057
 20
141.6350713924763
 30
0.0
 10
69.52500239090891
 20
141.5272862808544
 30
0.0
 10
69.52536446317042
 20
141.452920780627
 30
0.0
 10
69.52555110566225
 20
141.4145865480936
 30
0.0
  0
SPLINE
  5
7C
330
1F
100
AcDbEntity
  8
0
  6
Continuous
 62
     7
370
    15
100
AcDbSpline
210
0.0
220
0.0
230
1.0
 70
     8
 71
     3
 72
    19
 73
    15
 74
     0
 42
0.00000001
 43
0.00000001
 12
1.0
 22
0.0
 32
0.0
 13
1.0
 23
0.0
 33
0.0
 40
0.0
 40
0.0
 40
0.0
 40
0.0
 40
0.0717660641583448
 40
0.1412255357663683
 40
0.2091158524974582
 40
0.2748396534685288
 40
0.3394829303752206
 40
0.4024762667354001
 40
0.4649418891713277
 40
0.5268326406463841
 40
0.6474148160608211
 40
0.765561511785947
 40
0.8816150870393311
 40
1.0
 40
1.0
 40
1.0
 40
1.0
 10
67.7215647274571
 20
142.014045682709
 30
0.0
 10
67.73527597881284
 20
142.0387701019841
 30
0.0
 10
67.76225779593557
 20
142.0874242869335
 30
0.0
 10
67.80756343300826
 20
142.1562825491783
 30
0.0
 10
67.85503122948658
 20
142.2206893410237
 30
0.0
 10
67.90506572254716
 20
142.2806957653938
 30
0.0
 10
67.95749030938777
 20
142.3360054958078
 30
0.0
 10
68.01255170968794
 20
142.3868013974621
 30
0.0
 10
68.06993649111146
 20
142.4333016111468
 30
0.0
 10
68.14972873102417
 20
142.4876247706605
 30
0.0
 10
68.25354133841098
 20
142.5453259520229
 30
0.0
 10
68.38442945310882
 20
142.5953543960317
 30
0.0
 10
68.52057962469796
 20
142.6262705243906
 30
0.0
 10
68.6129973230054
 20
142.6299007972265
 30
0.0
 10
68.65966568899557
 20
142.631733983991
 30
0.0
  0
SPLINE
  5
7D
330
1F
100
AcDbEntity
  8
0
  6
Continuous
 62
     7
370
    15
100
AcDbSpline
210
0.0
220
0.0
230
1.0
 70
     8
 71
     3
 72
    19
 73
    15
 74
     0
 42
0.00000001
 43
0.00000001
 12
1.0
 22
0.0
 32
0.0
 13
1.0
 23
0.0
 33
0.0
 40
0.0
 40
0.0
 40
0.0
 40
0.0
 40
0.0841520188443164
 40
0.1665323202984584
 40
0.2488363311465319
 40
0.3312461454872593
 40
0.4129571090216164
 40
0.4904942776695653
 40
0.5661557919819223
 40
0.6399873346864628
 40
0.7167654882718508
 40
0.8021439047101026
 40
0.8958332007101957
 40
1.0
 40
1.0
 40
1.0
 40
1.0
 10
66.90756232361096
 20
142.631733983991
 30
0.0
 10
66.93845532017849
 20
142.6306886932106
 30
0.0
 10
66.99959089921767
 20
142.6286201189631
 30
0.0
 10
67.09017498931783
 20
142.6151600837863
 30
0.0
 10
67.17803360115083
 20
142.5918939107667
 30
0.0
 10
67.2626476304802
 20
142.5594865867993
 30
0.0
 10
67.34236830975907
 20
142.5202398998853
 30
0.0
 10
67.41545750750939
 20
142.4741901919685
 30
0.0
 10
67.48108171569214
 20
142.422493116563
 30
0.0
 10
67.53920776700029
 20
142.3628141835779
 30
0.0
 10
67.59147679239624
 20
142.2934775850573
 30
0.0
 10
67.63955563902621
 20
142.2126133361537
 30
0.0
 10
67.68398085140362
 20
142.118405675098
 30
0.0
 10
67.7086021602357
 20
142.05003913412
 30
0.0
 10
67.7215647274571
 20
142.014045682709
 30
0.0
  0
SPLINE
  5
7E
330
1F
100
AcDbEntity
  8
0
  6
Continuous
 62
     7
370
    15
100
AcDbSpline
210
0.0
220
0.0
230
1.0
 70
     8
 71
     3
 72
    11
 73
     7
 74
     0
 42
0.00000001
 43
0.00000001
 12
1.0
 22
0.0
 32
0.0
 13
1.0
 23
0.0
 33
0.0
 40
0.0
 40
0.0
 40
0.0
 40
0.0
 40
0.25373407569066
 40
0.5030351201318589
 40
0.7500135973308802
 40
1.0
 40
1.0
 40
1.0
 40
1.0
 10
66.38031873386737
 20
142.5020264519398
 30
0.0
 10
66.42218339605262
 20
142.5220318171851
 30
0.0
 10
66.50518129578016
 20
142.5616930305324
 30
0.0
 10
66.63660052070196
 20
142.6019265894958
 30
0.0
 10
66.7710751902384
 20
142.6266516908045
 30
0.0
 10
66.86188340414178
 20
142.630033064238
 30
0.0
 10
66.90756232361096
 20
142.631733983991
 30
0.0
  0
SPLINE
  5
7F
330
1F
100
AcDbEntity
  8
0
  6
Continuous
 62
     7
370
    15
100
AcDbSpline
210
0.0
220
0.0
230
1.0
 70
     8
 71
     3
 72
    11
 73
     7
 74
     0
 42
0.00000001
 43
0.00000001
 12
1.0
 22
0.0
 32
0.0
 13
1.0
 23
0.0
 33
0.0
 40
0.0
 40
0.0
 40
0.0
 40
0.0
 40
0.2835948081386833
 40
0.5433948405759527
 40
0.7806456291745494
 40
1.0
 40
1.0
 40
1.0
 40
1.0
 10
66.02555110566225
 20
142.1423509711705
 30
0.0
 10
66.05383505557644
 20
142.1812385729004
 30
0.0
 10
66.10802981518916
 20
142.255750945962
 30
0.0
 10
66.19689546768147
 20
142.353941230198
 30
0.0
 10
66.28567158016067
 20
142.4372693848521
 30
0.0
 10
66.34960496192885
 20
142.4810122564564
 30
0.0
 10
66.38031873386737
 20
142.5020264519398
 30
0.0
  0
LINE
  5
80
330
1F
100
AcDbEntity
  8
0
  6
Continuous
 62
     7
370
    15
100
AcDbLine
 10
66.0255507522
 20
142.5868624785
 30
0.0
 11
66.0255507522
 21
142.1423533895
 31
0.0
  0
LINE
  5
81
330
1F
100
AcDbEntity
  8
0
  6
Continuous
 62
     7
370
    15
100
AcDbLine
 10
65.7114482441
 20
142.5868624785
 30
0.0
 11
66.0255507522
 21
142.5868624785
 31
0.0
  0
LINE
  5
82
330
1F
100
AcDbEntity
  8
0
  6
Continuous
 62
     7
370
    15
100
AcDbLine
 10
65.7114482441
 20
140.0291675665
 30
0.0
 11
65.7114482441
 21
142.5868624785
 31
0.0
  0
LINE
  5
83
330
1F
100
AcDbEntity
  8
0
  6
Continuous
 62
     7
370
    15
100
AcDbLine
 10
85.7768527188
 20
149.1060906985
 30
0.0
 11
84.4229872294
 21
149.1060906985
 31
0.0
  0
LINE
  5
84
330
1F
100
AcDbEntity
  8
0
  6
Continuous
 62
     7
370
    15
100
AcDbLine
 10
84.2883720019
 20
146.8625048139
 30
0.0
 11
85.7768527188
 21
149.1060906985
 31
0.0
  0
LINE
  5
85
330
1F
100
AcDbEntity
  8
0
  6
Continuous
 62
     7
370
    15
100
AcDbLine
 10
86.3076022782
 20
146.8625048139
 30
0.0
 11
84.2883720019
 21
146.8625048139
 31
0.0
  0
LINE
  5
86
330
1F
100
AcDbEntity
  8
0
  6
Continuous
 62
     7
370
    15
100
AcDbLine
 10
86.3076022782
 20
147.1766063907
 30
0.0
 11
86.3076022782
 21
146.8625048139
 31
0.0
  0
LINE
  5
87
330
1F
100
AcDbEntity
  8
0
  6
Continuous
 62
     7
370
    15
100
AcDbLine
 10
84.8646930375
 20
147.1766063907
 30
0.0
 11
86.3076022782
 21
147.1766063907
 31
0.0
  0
LINE
  5
88
330
1F
100
AcDbEntity
  8
0
  6
Continuous
 62
     7
370
    15
100
AcDbLine
 10
86.3524733999
 20
149.4201922753
 30
0.0
 11
84.8646930375
 21
147.1766063907
 31
0.0
  0
LINE
  5
89
330
1F
100
AcDbEntity
  8
0
  6
Continuous
 62
     7
370
    15
100
AcDbLine
 10
84.4229872294
 20
149.4201922753
 30
0.0
 11
86.3524733999
 21
149.4201922753
 31
0.0
  0
LINE
  5
8A
330
1F
100
AcDbEntity
  8
0
  6
Continuous
 62
     7
370
    15
100
AcDbLine
 10
84.4229872294
 20
149.1060906985
 30
0.0
 11
84.4229872294
 21
149.4201922753
 31
0.0
  0
LINE
  5
8B
330
1F
100
AcDbEntity
  8
0
  6
Continuous
 62
     7
370
    15
100
AcDbLine
 10
77.8043980666
 20
149.3865380027
 30
0.0
 11
77.4699619927
 21
146.8625048139
 31
0.0
  0
LINE
  5
8C
330
1F
100
AcDbEntity
  8
0
  6
Continuous
 62
     7
370
    15
100
AcDbLine
 10
79.0727271654
 20
146.8625048139
 30
0.0
 11
77.8043980666
 21
149.3865380027
 31
0.0
  0
LINE
  5
8D
330
1F
100
AcDbEntity
  8
0
  6
Continuous
 62
     7
370
    15
100
AcDbLine
 10
79.1435393461
 20
146.8625048139
 30
0.0
 11
79.0727271654
 21
146.8625048139
 31
0.0
  0
LINE
  5
8E
330
1F
100
AcDbEntity
  8
0
  6
Continuous
 62
     7
370
    15
100
AcDbLine
 10
80.4069622376
 20
149.3809351661
 30
0.0
 11
79.1435393461
 21
146.8625048139
 31
0.0
  0
LINE
  5
8F
330
1F
100
AcDbEntity
  8
0
  6
Continuous
 62
     7
370
    15
100
AcDbLine
 10
80.7420968034
 20
146.8625048139
 30
0.0
 11
80.4069622376
 21
149.3809351661
 31
0.0
  0
LINE
  5
90
330
1F
100
AcDbEntity
  8
0
  6
Continuous
 62
     7
370
    15
100
AcDbLine
 10
81.0576028147
 20
146.8625048139
 30
0.0
 11
80.7420968034
 21
146.8625048139
 31
0.0
  0
LINE
  5
91
330
1F
100
AcDbEntity
  8
0
  6
Continuous
 62
     7
370
    15
100
AcDbLine
 10
80.5927592286
 20
150.3625044563
 30
0.0
 11
81.0576028147
 21
146.8625048139
 31
0.0
  0
LINE
  5
92
330
1F
100
AcDbEntity
  8
0
  6
Continuous
 62
     7
370
    15
100
AcDbLine
 10
80.5471858897
 20
150.3625044563
 30
0.0
 11
80.5927592286
 21
150.3625044563
 31
0.0
  0
LINE
  5
93
330
1F
100
AcDbEntity
  8
0
  6
Continuous
 62
     7
370
    15
100
AcDbLine
 10
79.1056792208
 20
147.4907079675
 30
0.0
 11
80.5471858897
 21
150.3625044563
 31
0.0
  0
LINE
  5
94
330
1F
100
AcDbEntity
  8
0
  6
Continuous
 62
     7
370
    15
100
AcDbLine
 10
77.6606670537
 20
150.3625044563
 30
0.0
 11
79.1056792208
 21
147.4907079675
 31
0.0
  0
LINE
  5
95
330
1F
100
AcDbEntity
  8
0
  6
Continuous
 62
     7
370
    15
100
AcDbLine
 10
77.615795932
 20
150.3625044563
 30
0.0
 11
77.6606670537
 21
150.3625044563
 31
0.0
  0
LINE
  5
96
330
1F
100
AcDbEntity
  8
0
  6
Continuous
 62
     7
370
    15
100
AcDbLine
 10
77.1537556269
 20
146.8625048139
 30
0.0
 11
77.615795932
 21
150.3625044563
 31
0.0
  0
LINE
  5
97
330
1F
100
AcDbEntity
  8
0
  6
Continuous
 62
     7
370
    15
100
AcDbLine
 10
77.4699619927
 20
146.8625048139
 30
0.0
 11
77.1537556269
 21
146.8625048139
 31
0.0
  0
SPLINE
  5
98
330
1F
100
AcDbEntity
  8
0
  6
Continuous
 62
     7
370
    15
100
AcDbSpline
210
0.0
220
0.0
230
1.0
 70
     8
 71
     3
 72
    19
 73
    15
 74
     0
 42
0.00000001
 43
0.00000001
 12
1.0
 22
0.0
 32
0.0
 13
1.0
 23
0.0
 33
0.0
 40
0.0
 40
0.0
 40
0.0
 40
0.0
 40
0.0894097111101364
 40
0.1763057644831073
 40
0.2626259021834187
 40
0.3494457264756536
 40
0.4354982637429536
 40
0.5189281301037137
 40
0.6013546565787412
 40
0.6842564217184153
 40
0.7658067397968372
 40
0.8448768657103879
 40
0.9222797948488702
 40
1.0
 40
1.0
 40
1.0
 40
1.0
 10
71.49359998386737
 20
150.4522468045039
 30
0.0
 10
71.53810379885842
 20
150.4508004613939
 30
0.0
 10
71.62586025201085
 20
150.4479484375529
 30
0.0
 10
71.75485487958957
 20
150.4241615594909
 30
0.0
 10
71.87827975702548
 20
150.3844320397448
 30
0.0
 10
71.99570925595596
 20
150.3305348164156
 30
0.0
 10
72.10504112342585
 20
150.2641478756086
 30
0.0
 10
72.2016434326796
 20
150.1837470015372
 30
0.0
 10
72.28697601464499
 20
150.0936054508165
 30
0.0
 10
72.35756040890338
 20
149.9926858475029
 30
0.0
 10
72.41572329832191
 20
149.8860016538674
 30
0.0
 10
72.45622419943857
 20
149.7743791329745
 30
0.0
 10
72.48217617341095
 20
149.660230074113
 30
0.0
 10
72.48544953758146
 20
149.5829920702065
 30
0.0
 10
72.48708956720071
 20
149.5442940801449
 30
0.0
  0
SPLINE
  5
99
330
1F
100
AcDbEntity
  8
0
  6
Continuous
 62
     7
370
    15
100
AcDbSpline
210
0.0
220
0.0
230
1.0
 70
     8
 71
     3
 72
    19
 73
    15
 74
     0
 42
0.00000001
 43
0.00000001
 12
1.0
 22
0.0
 32
0.0
 13
1.0
 23
0.0
 33
0.0
 40
0.0
 40
0.0
 40
0.0
 40
0.0
 40
0.0740584262733879
 40
0.148870352316879
 40
0.226667668369177
 40
0.3077347594511167
 40
0.391157203805981
 40
0.4739293555425553
 40
0.5579277515150588
 40
0.6449892900513606
 40
0.7333640555176179
 40
0.8210920421841608
 40
0.9092872149973381
 40
1.0
 40
1.0
 40
1.0
 40
1.0
 10
70.46785879796994
 20
149.5541097852731
 30
0.0
 10
70.46949422206772
 20
149.5914073436547
 30
0.0
 10
70.47278170971602
 20
149.6663819405539
 30
0.0
 10
70.4993650303013
 20
149.7779880638745
 30
0.0
 10
70.5426850968144
 20
149.8876046288987
 30
0.0
 10
70.6016060938276
 20
149.9947003417192
 30
0.0
 10
70.67499330997393
 20
150.0956505563814
 30
0.0
 10
70.76303985580485
 20
150.1861915026665
 30
0.0
 10
70.86364315262558
 20
150.2655029851515
 30
0.0
 10
70.97630101962905
 20
150.3320791579
 30
0.0
 10
71.09753725536274
 20
150.3862628166874
 30
0.0
 10
71.22545297924614
 20
150.4236412395061
 30
0.0
 10
71.3578194724045
 20
150.4480773562136
 30
0.0
 10
71.44791719175308
 20
150.4508440108524
 30
0.0
 10
71.49359998386737
 20
150.4522468045039
 30
0.0
  0
SPLINE
  5
9A
330
1F
100
AcDbEntity
  8
0
  6
Continuous
 62
     7
370
    15
100
AcDbSpline
210
0.0
220
0.0
230
1.0
 70
     8
 71
     3
 72
    15
 73
    11
 74
     0
 42
0.00000001
 43
0.00000001
 12
1.0
 22
0.0
 32
0.0
 13
1.0
 23
0.0
 33
0.0
 40
0.0
 40
0.0
 40
0.0
 40
0.0
 40
0.1458600603916702
 40
0.2824259030758181
 40
0.4108504003575529
 40
0.5350294213479305
 40
0.6547010781259398
 40
0.7701334325965128
 40
0.8845558441988663
 40
1.0
 40
1.0
 40
1.0
 40
1.0
 10
70.97897658643147
 20
148.8123229262987
 30
0.0
 10
70.93838521175904
 20
148.8344576949186
 30
0.0
 10
70.8597889488879
 20
148.8773168024771
 30
0.0
 10
70.75571950775543
 20
148.9560636085701
 30
0.0
 10
70.66632888430118
 20
149.0413514233854
 30
0.0
 10
70.59407416668587
 20
149.1349812182088
 30
0.0
 10
70.5372019386137
 20
149.2340280925129
 30
0.0
 10
70.498183334067
 20
149.3378723448922
 30
0.0
 10
70.47178685006288
 20
149.4445884583975
 30
0.0
 10
70.46917202292165
 20
149.5174946549753
 30
0.0
 10
70.46785879796994
 20
149.5541097852731
 30
0.0
  0
SPLINE
  5
9B
330
1F
100
AcDbEntity
  8
0
  6
Continuous
 62
     7
370
    15
100
AcDbSpline
210
0.0
220
0.0
230
1.0
 70
     8
 71
     3
 72
    23
 73
    19
 74
     0
 42
0.00000001
 43
0.00000001
 12
1.0
 22
0.0
 32
0.0
 13
1.0
 23
0.0
 33
0.0
 40
0.0
 40
0.0
 40
0.0
 40
0.0
 40
0.0588535860286723
 40
0.1163154589633601
 40
0.1726748434114593
 40
0.2287803868809075
 40
0.2845803591252787
 40
0.340256506384545
 40
0.3966298050124629
 40
0.4535072628751954
 40
0.5123181897799957
 40
0.5726484440568376
 40
0.6360219358218059
 40
0.7023629463891965
 40
0.7714830560569307
 40
0.8441844774899022
 40
0.9200697939721548
 40
1.0
 40
1.0
 40
1.0
 40
1.0
 10
70.28837161848276
 20
147.8531883109141
 30
0.0
 10
70.28894949951153
 20
147.8777475029509
 30
0.0
 10
70.29009159639334
 20
147.9262851348318
 30
0.0
 10
70.29799644462429
 20
147.9979944631171
 30
0.0
 10
70.31070490592762
 20
148.0677905978915
 30
0.0
 10
70.32796436272113
 20
148.1359313415689
 30
0.0
 10
70.35135538918942
 20
148.2019206140895
 30
0.0
 10
70.37959752233391
 20
148.2660710877689
 30
0.0
 10
70.41252947481097
 20
148.3284551867131
 30
0.0
 10
70.45061063986299
 20
148.389414067782
 30
0.0
 10
70.49491266386424
 20
148.4480935800113
 30
0.0
 10
70.54507631365114
 20
148.5054895746211
 30
0.0
 10
70.60210418231624
 20
148.5607114417583
 30
0.0
 10
70.6653618412168
 20
148.614433866675
 30
0.0
 10
70.7341263806823
 20
148.6676098404947
 30
0.0
 10
70.8101839111675
 20
148.7173655691059
 30
0.0
 10
70.89151817895828
 20
148.7672235338689
 30
0.0
 10
70.94932358456563
 20
148.7970318593046
 30
0.0
 10
70.97897658643147
 20
148.8123229262987
 30
0.0
  0
SPLINE
  5
9C
330
1F
100
AcDbEntity
  8
0
  6
Continuous
 62
     7
370
    15
100
AcDbSpline
210
0.0
220
0.0
230
1.0
 70
     8
 71
     3
 72
    23
 73
    19
 74
     0
 42
0.00000001
 43
0.00000001
 12
1.0
 22
0.0
 32
0.0
 13
1.0
 23
0.0
 33
0.0
 40
0.0
 40
0.0
 40
0.0
 40
0.0
 40
0.0785564333527024
 40
0.1528628401420922
 40
0.223559693438287
 40
0.2903749439782093
 40
0.3554030728222055
 40
0.4182911570440924
 40
0.4803885637756488
 40
0.5430726152062787
 40
0.6049239444620952
 40
0.6643983091133004
 40
0.7219425547367041
 40
0.7783748910546767
 40
0.8338299406509421
 40
0.8888612363188866
 40
0.9440889395778875
 40
1.0
 40
1.0
 40
1.0
 40
1.0
 10
71.47256633002122
 20
146.7727596250167
 30
0.0
 10
71.42555294140516
 20
146.7739121029713
 30
0.0
 10
71.3340696624191
 20
146.7761547080111
 30
0.0
 10
71.2009117848783
 20
146.7913491395886
 30
0.0
 10
71.07678871503306
 20
146.8179770062668
 30
0.0
 10
70.96097874673438
 20
146.8544216155888
 30
0.0
 10
70.85418005339497
 20
146.901831843905
 30
0.0
 10
70.75669695222213
 20
146.9608402526525
 30
0.0
 10
70.6671229799683
 20
147.0290716948136
 30
0.0
 10
70.58817650640204
 20
147.1084857730146
 30
0.0
 10
70.51808806254571
 20
147.1935436453372
 30
0.0
 10
70.45652000947824
 20
147.281295255098
 30
0.0
 10
70.40534593095049
 20
147.371748612637
 30
0.0
 10
70.362018835605
 20
147.463554979823
 30
0.0
 10
70.32885081292119
 20
147.5580011339541
 30
0.0
 10
70.30587860259271
 20
147.6546011470875
 30
0.0
 10
70.29128928854936
 20
147.7531862899397
 30
0.0
 10
70.28934815364681
 20
147.8197179432137
 30
0.0
 10
70.28837161848276
 20
147.8531883109141
 30
0.0
  0
SPLINE
  5
9D
330
1F
100
AcDbEntity
  8
0
  6
Continuous
 62
     7
370
    15
100
AcDbSpline
210
0.0
220
0.0
230
1.0
 70
     8
 71
     3
 72
    15
 73
    11
 74
     0
 42
0.00000001
 43
0.00000001
 12
1.0
 22
0.0
 32
0.0
 13
1.0
 23
0.0
 33
0.0
 40
0.0
 40
0.0
 40
0.0
 40
0.0
 40
0.1192834503733733
 40
0.2370928820686265
 40
0.3547960442151281
 40
0.4745763009408468
 40
0.5974600658149758
 40
0.7249261546156118
 40
0.8588831991927632
 40
1.0
 40
1.0
 40
1.0
 40
1.0
 10
72.40155270822635
 20
147.1569743686064
 30
0.0
 10
72.37371623392204
 20
147.1263805944156
 30
0.0
 10
72.31838726834653
 20
147.0655711017863
 30
0.0
 10
72.22360434073036
 20
146.9866202917954
 30
0.0
 10
72.11958245691444
 20
146.9202708977022
 30
0.0
 10
72.00672412427572
 20
146.8661990031534
 30
0.0
 10
71.88533102286996
 20
146.8241131442285
 30
0.0
 10
71.75542901825963
 20
146.7938706263152
 30
0.0
 10
71.61676486534115
 20
146.7765481970985
 30
0.0
 10
71.52145939422543
 20
146.7740442073991
 30
0.0
 10
71.47256633002122
 20
146.7727596250167
 30
0.0
  0
SPLINE
  5
9E
330
1F
100
AcDbEntity
  8
0
  6
Continuous
 62
     7
370
    15
100
AcDbSpline
210
0.0
220
0.0
230
1.0
 70
     8
 71
     3
 72
    15
 73
    11
 74
     0
 42
0.00000001
 43
0.00000001
 12
1.0
 22
0.0
 32
0.0
 13
1.0
 23
0.0
 33
0.0
 40
0.0
 40
0.0
 40
0.0
 40
0.0
 40
0.1281581855276709
 40
0.2536731361531627
 40
0.377325305973481
 40
0.4993845547645989
 40
0.6229183680423378
 40
0.7458393931045705
 40
0.8713952850140269
 40
1.0
 40
1.0
 40
1.0
 40
1.0
 10
72.6665767466879
 20
147.8819343045039
 30
0.0
 10
72.66580532614837
 20
147.8482365718781
 30
0.0
 10
72.66427839545138
 20
147.7815361150852
 30
0.0
 10
72.65097841142695
 20
147.6830900035877
 30
0.0
 10
72.63106543294273
 20
147.5874782216592
 30
0.0
 10
72.60198592066399
 20
147.4947217308441
 30
0.0
 10
72.56427252981435
 20
147.4053323575021
 30
0.0
 10
72.51779569383457
 20
147.319233584059
 30
0.0
 10
72.46518448868784
 20
147.2350142748852
 30
0.0
 10
72.42293224948175
 20
147.1831948732624
 30
0.0
 10
72.40155270822635
 20
147.1569743686064
 30
0.0
  0
SPLINE
  5
9F
330
1F
100
AcDbEntity
  8
0
  6
Continuous
 62
     7
370
    15
100
AcDbSpline
210
0.0
220
0.0
230
1.0
 70
     8
 71
     3
 72
    23
 73
    19
 74
     0
 42
0.00000001
 43
0.00000001
 12
1.0
 22
0.0
 32
0.0
 13
1.0
 23
0.0
 33
0.0
 40
0.0
 40
0.0
 40
0.0
 40
0.0
 40
0.0795248295850126
 40
0.1550999763495356
 40
0.2272198200732691
 40
0.2959105041914692
 40
0.3620558809471774
 40
0.4255201169126341
 40
0.4858127192253037
 40
0.5444947060018138
 40
0.6014596357222257
 40
0.6578405937966461
 40
0.7139744721931416
 40
0.7694679515974508
 40
0.8261299671813241
 40
0.8828853593090698
 40
0.9407008816661969
 40
1.0
 40
1.0
 40
1.0
 40
1.0
 10
71.9899942146366
 20
148.8123229262987
 30
0.0
 10
72.01864276178652
 20
148.7973849703401
 30
0.0
 10
72.0745169963946
 20
148.7682509674384
 30
0.0
 10
72.15409420460477
 20
148.7213401397499
 30
0.0
 10
72.22681920585552
 20
148.6718991748835
 30
0.0
 10
72.29470976764341
 20
148.6222633154709
 30
0.0
 10
72.35657311845011
 20
148.570531664072
 30
0.0
 10
72.41171753130945
 20
148.516498507864
 30
0.0
 10
72.46150515122733
 20
148.4615125625695
 30
0.0
 10
72.5049319352167
 20
148.4046427224048
 30
0.0
 10
72.5431287719358
 20
148.3460400733106
 30
0.0
 10
72.57614090713938
 20
148.2855508002683
 30
0.0
 10
72.60435810997204
 20
148.2233074664977
 30
0.0
 10
72.62672104869908
 20
148.1586306365622
 30
0.0
 10
72.64514284038992
 20
148.092470374904
 30
0.0
 10
72.65781844543174
 20
148.0239723930518
 30
0.0
 10
72.6646353632493
 20
147.9535880521562
 30
0.0
 10
72.66592417669055
 20
147.9060197504724
 30
0.0
 10
72.6665767466879
 20
147.8819343045039
 30
0.0
  0
SPLINE
  5
A0
330
1F
100
AcDbEntity
  8
0
  6
Continuous
 62
     7
370
    15
100
AcDbSpline
210
0.0
220
0.0
230
1.0
 70
     8
 71
     3
 72
    15
 73
    11
 74
     0
 42
0.00000001
 43
0.00000001
 12
1.0
 22
0.0
 32
0.0
 13
1.0
 23
0.0
 33
0.0
 40
0.0
 40
0.0
 40
0.0
 40
0.0
 40
0.1219040408698779
 40
0.2394126076020075
 40
0.3554101042801769
 40
0.4720907288033012
 40
0.5928589821563582
 40
0.7187034677136857
 40
0.8548923829515235
 40
0.9999999999999999
 40
0.9999999999999999
 40
0.9999999999999999
 40
0.9999999999999999
 10
72.48708956720071
 20
149.5442940801449
 30
0.0
 10
72.4856550065682
 20
149.5063174162881
 30
0.0
 10
72.48283761102219
 20
149.4317334069551
 30
0.0
 10
72.45913767149491
 20
149.323006886477
 30
0.0
 10
72.41922435789394
 20
149.2211848475459
 30
0.0
 10
72.3647301949108
 20
149.1251118953758
 30
0.0
 10
72.29370470742482
 20
149.0365303977661
 30
0.0
 10
72.20709597437808
 20
148.9543139278747
 30
0.0
 10
72.10559449612269
 20
148.877787099542
 30
0.0
 10
72.02933360990926
 20
148.8346007352652
 30
0.0
 10
71.9899942146366
 20
148.8123229262987
 30
0.0
  0
LINE
  5
A1
330
1F
100
AcDbEntity
  8
0
  6
Continuous
 62
     7
370
    15
100
AcDbLine
 10
65.3076025613
 20
148.6125046351
 30
0.0
 11
65.6665771224
 21
150.3625044563
 31
0.0
  0
SPLINE
  5
A2
330
1F
100
AcDbEntity
  8
0
  6
Continuous
 62
     7
370
    15
100
AcDbSpline
210
0.0
220
0.0
230
1.0
 70
     8
 71
     3
 72
    15
 73
    11
 74
     0
 42
0.00000001
 43
0.00000001
 12
1.0
 22
0.0
 32
0.0
 13
1.0
 23
0.0
 33
0.0
 40
0.0
 40
0.0
 40
0.0
 40
0.0
 40
0.1022030370352194
 40
0.2110233423738751
 40
0.3250996615652102
 40
0.4465020971348891
 40
0.573787717648857
 40
0.7089007097660643
 40
0.850357871293399
 40
1.0
 40
1.0
 40
1.0
 40
1.0
 10
66.0788363620725
 20
148.7919903942474
 30
0.0
 10
66.05170743326607
 20
148.7914098030899
 30
0.0
 10
65.99569307794137
 20
148.7902110296465
 30
0.0
 10
65.90977025121211
 20
148.7813845328202
 30
0.0
 10
65.8194785282354
 20
148.7671452383921
 30
0.0
 10
65.72516403267917
 20
148.7475589909229
 30
0.0
 10
65.62654352457618
 20
148.7219279141642
 30
0.0
 10
65.5238251238489
 20
148.6912134135387
 30
0.0
 10
65.4167928572496
 20
148.6544914148251
 30
0.0
 10
65.34467513285088
 20
148.6267592010784
 30
0.0
 10
65.30760238771352
 20
148.6125032147603
 30
0.0
  0
SPLINE
  5
A3
330
1F
100
AcDbEntity
  8
0
  6
Continuous
 62
     7
370
    15
100
AcDbSpline
210
0.0
220
0.0
230
1.0
 70
     8
 71
     3
 72
    23
 73
    19
 74
     0
 42
0.00000001
 43
0.00000001
 12
1.0
 22
0.0
 32
0.0
 13
1.0
 23
0.0
 33
0.0
 40
0.0
 40
0.0
 40
0.0
 40
0.0
 40
0.0653513820265954
 40
0.1279160318306171
 40
0.1883602055716976
 40
0.2472160772654547
 40
0.3056301291974088
 40
0.3637698398318226
 40
0.4226609139127806
 40
0.4826872940903918
 40
0.5433002212395576
 40
0.6041179553231018
 40
0.6649648912652838
 40
0.7274134941125662
 40
0.7914676251494234
 40
0.8580554427291014
 40
0.9270368146149481
 40
1.0
 40
1.0
 40
1.0
 40
1.0
 10
66.92298700309814
 20
148.0193541762987
 30
0.0
 10
66.9223285236367
 20
148.0474299279199
 30
0.0
 10
66.9210396437823
 20
148.1023842169751
 30
0.0
 10
66.91050907347935
 20
148.1827834234164
 30
0.0
 10
66.89219210112564
 20
148.258856465718
 30
0.0
 10
66.86676822117867
 20
148.3309706996899
 30
0.0
 10
66.83448871344508
 20
148.3991941420379
 30
0.0
 10
66.79504240112625
 20
148.4635972022382
 30
0.0
 10
66.74768900318276
 20
148.5233310354617
 30
0.0
 10
66.6935971145941
 20
148.5784235890711
 30
0.0
 10
66.634339073651
 20
148.6292684639443
 30
0.0
 10
66.56889533105388
 20
148.6726125503962
 30
0.0
 10
66.49863540425872
 20
148.709076468048
 30
0.0
 10
66.42440580478988
 20
148.7405444663908
 30
0.0
 10
66.34444090620246
 20
148.7631452117901
 30
0.0
 10
66.26032427382307
 20
148.7801130972323
 30
0.0
 10
66.17114756587611
 20
148.7899284599105
 30
0.0
 10
66.11017687774216
 20
148.7912903482862
 30
0.0
 10
66.0788363620725
 20
148.7919903942474
 30
0.0
  0
SPLINE
  5
A4
330
1F
100
AcDbEntity
  8
0
  6
Continuous
 62
     7
370
    15
100
AcDbSpline
210
0.0
220
0.0
230
1.0
 70
     8
 71
     3
 72
    23
 73
    19
 74
     0
 42
0.00000001
 43
0.00000001
 12
1.0
 22
0.0
 32
0.0
 13
1.0
 23
0.0
 33
0.0
 40
0.0
 40
0.0
 40
0.0
 40
0.0
 40
0.0642072952829862
 40
0.1264246897797428
 40
0.1876802842649233
 40
0.2482164244552123
 40
0.308305060008613
 40
0.3696609913251439
 40
0.4316985517867803
 40
0.4959468922087624
 40
0.5597580239721217
 40
0.6222954078261574
 40
0.6839106352841761
 40
0.7450924080566296
 40
0.8067402253892908
 40
0.8690866181212016
 40
0.9332900029747996
 40
1.0
 40
1.0
 40
1.0
 40
1.0
 10
66.03466568899557
 20
147.131733983991
 30
0.0
 10
66.06462413341286
 20
147.1325547618962
 30
0.0
 10
66.12361255560144
 20
147.1341708803072
 30
0.0
 10
66.21042394229444
 20
147.1466098923971
 30
0.0
 10
66.29423681649658
 20
147.1657674637047
 30
0.0
 10
66.37422417325554
 20
147.1944373186884
 30
0.0
 10
66.45178571284458
 20
147.2292820371143
 30
0.0
 10
66.52495948326768
 20
147.2739971129301
 30
0.0
 10
66.59586236040835
 20
147.3254571313751
 30
0.0
 10
66.6622904939294
 20
147.3844137614185
 30
0.0
 10
66.72312994318895
 20
147.4493834560378
 30
0.0
 10
66.7768860643229
 20
147.5188608494627
 30
0.0
 10
66.82166297774904
 20
147.5929776960056
 30
0.0
 10
66.85939708661871
 20
147.6704508488565
 30
0.0
 10
66.88805038544136
 20
147.7521294060349
 30
0.0
 10
66.90849136666415
 20
147.8376305812073
 30
0.0
 10
66.92049442548264
 20
147.9271655614138
 30
0.0
 10
66.92214560545462
 20
147.98823487119
 30
0.0
 10
66.92298700309814
 20
148.0193541762987
 30
0.0
  0
SPLINE
  5
A5
330
1F
100
AcDbEntity
  8
0
  6
Continuous
 62
     7
370
    15
100
AcDbSpline
210
0.0
220
0.0
230
1.0
 70
     8
 71
     3
 72
    19
 73
    15
 74
     0
 42
0.00000001
 43
0.00000001
 12
1.0
 22
0.0
 32
0.0
 13
1.0
 23
0.0
 33
0.0
 40
0.0
 40
0.0
 40
0.0
 40
0.0
 40
0.0946872518675525
 40
0.1819941557072742
 40
0.264376948610504
 40
0.3421798619477694
 40
0.4186176108621417
 40
0.4965090753719029
 40
0.5773690916117338
 40
0.6615105924541946
 40
0.7467325508291941
 40
0.8312579843277429
 40
0.915205616213654
 40
1.0
 40
1.0
 40
1.0
 40
1.0
 10
65.26273059284173
 20
147.7599391121962
 30
0.0
 10
65.2704591502319
 20
147.7265626597475
 30
0.0
 10
65.28531386667277
 20
147.6624112648755
 30
0.0
 10
65.31791961542474
 20
147.5722799235425
 30
0.0
 10
65.35778549089747
 20
147.4919606998665
 30
0.0
 10
65.40518983931473
 20
147.420391116593
 30
0.0
 10
65.46173986980097
 20
147.3579821193206
 30
0.0
 10
65.52626929874161
 20
147.3023650573828
 30
0.0
 10
65.59861702194084
 20
147.2521899280553
 30
0.0
 10
65.67901025146075
 20
147.210367160858
 30
0.0
 10
65.7638233307811
 20
147.174698407458
 30
0.0
 10
65.85259054079069
 20
147.1509467125063
 30
0.0
 10
65.94289488726179
 20
147.1342458196635
 30
0.0
 10
66.00397325745828
 20
147.1325740588618
 30
0.0
 10
66.03466568899557
 20
147.131733983991
 30
0.0
  0
LINE
  5
A6
330
1F
100
AcDbEntity
  8
0
  6
Continuous
 62
     7
370
    15
100
AcDbLine
 10
64.9486280002
 20
147.759942148
 30
0.0
 11
65.2627305084
 21
147.759942148
 31
0.0
  0
SPLINE
  5
A7
330
1F
100
AcDbEntity
  8
0
  6
Continuous
 62
     7
370
    15
100
AcDbSpline
210
0.0
220
0.0
230
1.0
 70
     8
 71
     3
 72
    23
 73
    19
 74
     0
 42
0.00000001
 43
0.00000001
 12
1.0
 22
0.0
 32
0.0
 13
1.0
 23
0.0
 33
0.0
 40
0.0
 40
0.0
 40
0.0
 40
0.0
 40
0.0654211437588926
 40
0.1287083718818823
 40
0.1902361418635396
 40
0.2507244020335411
 40
0.3106371794134433
 40
0.3707664082897268
 40
0.4316147444123562
 40
0.4935229735663555
 40
0.5558834553775379
 40
0.6173423673185103
 40
0.678668039097278
 40
0.7407113595451515
 40
0.802985362512749
 40
0.8668025802655211
 40
0.9323471713458898
 40
1.0
 40
1.0
 40
1.0
 40
1.0
 10
66.01643652232892
 20
146.7727596250167
 30
0.0
 10
65.9815623416267
 20
146.7734504630009
 30
0.0
 10
65.91295151092281
 20
146.7748096051232
 30
0.0
 10
65.81243094385125
 20
146.7890280903773
 30
0.0
 10
65.71571633815779
 20
146.8093920067698
 30
0.0
 10
65.62358623700038
 20
146.8400282766182
 30
0.0
 10
65.53521497329513
 20
146.8784155713084
 30
0.0
 10
65.45179225550628
 20
146.9269317428038
 30
0.0
 10
65.37118647945842
 20
146.9819108465509
 30
0.0
 10
65.29667444270889
 20
147.0467911995156
 30
0.0
 10
65.22751832923926
 20
147.1177068815482
 30
0.0
 10
65.16561182036892
 20
147.1946645227139
 30
0.0
 10
65.11047824363227
 20
147.2763939648
 30
0.0
 10
65.06300049664341
 20
147.3632921188757
 30
0.0
 10
65.02250247532703
 20
147.4551306498134
 30
0.0
 10
64.99068748705032
 20
147.5522536507053
 30
0.0
 10
64.9650091321072
 20
147.6541536546447
 30
0.0
 10
64.95414571163084
 20
147.7243071650552
 30
0.0
 10
64.94862802873917
 20
147.7599391121962
 30
0.0
  0
SPLINE
  5
A8
330
1F
100
AcDbEntity
  8
0
  6
Continuous
 62
     7
370
    15
100
AcDbSpline
210
0.0
220
0.0
230
1.0
 70
     8
 71
     3
 72
    31
 73
    27
 74
     0
 42
0.00000001
 43
0.00000001
 12
1.0
 22
0.0
 32
0.0
 13
1.0
 23
0.0
 33
0.0
 40
0.0
 40
0.0
 40
0.0
 40
0.0
 40
0.0440144705761409
 40
0.0874341236677078
 40
0.1301183986579017
 40
0.1725536945581809
 40
0.2145547559681395
 40
0.2562980920971334
 40
0.2984382251332485
 40
0.3408490025880964
 40
0.3827151889670306
 40
0.4239240454075328
 40
0.4642462432504167
 40
0.5040736714617985
 40
0.5438619058684933
 40
0.5835667249796551
 40
0.623094318852335
 40
0.6632290607685868
 40
0.7035512586114697
 40
0.7439378946861852
 40
0.7845412548000934
 40
0.8257501112405977
 40
0.8677573633885064
 40
0.9107451640323099
 40
0.9549144468914781
 40
0.9999999999999999
 40
0.9999999999999999
 40
0.9999999999999999
 40
0.9999999999999999
 10
67.2370895672007
 20
148.0060328621962
 30
0.0
 10
67.23642449192734
 20
147.9775106418442
 30
0.0
 10
67.23510332929743
 20
147.9208516542684
 30
0.0
 10
67.22838474164965
 20
147.8367074535831
 30
0.0
 10
67.21544902558546
 20
147.7543446205007
 30
0.0
 10
67.19808130148141
 20
147.673752228662
 30
0.0
 10
67.17553888351591
 20
147.5950828564829
 30
0.0
 10
67.14824982961359
 20
147.5181113285561
 30
0.0
 10
67.11485380210372
 20
147.443316721813
 30
0.0
 10
67.0782224268448
 20
147.3699913267892
 30
0.0
 10
67.03697594880948
 20
147.2997928195945
 30
0.0
 10
66.99119744147053
 20
147.2341438330518
 30
0.0
 10
66.94283195024819
 20
147.1720595515718
 30
0.0
 10
66.89079056478991
 20
147.1142058185627
 30
0.0
 10
66.83458956967732
 20
147.0609628006697
 30
0.0
 10
66.77490960281563
 20
147.0120145191638
 30
0.0
 10
66.71222688378649
 20
146.9665331888606
 30
0.0
 10
66.64557164146554
 20
146.9263649936851
 30
0.0
 10
66.57642915850197
 20
146.8894020375323
 30
0.0
 10
66.50380094136149
 20
146.859078500197
 30
0.0
 10
66.42934024090398
 20
146.831967972112
 30
0.0
 10
66.35197536530916
 20
146.8103584445005
 30
0.0
 10
66.27188155269339
 20
146.7934258899811
 30
0.0
 10
66.1889267772113
 20
146.7819252893787
 30
0.0
 10
66.10354610718754
 20
146.7735488519084
 30
0.0
 10
66.04567109460767
 20
146.7730244949578
 30
0.0
 10
66.01643652232892
 20
146.7727596250167
 30
0.0
  0
SPLINE
  5
A9
330
1F
100
AcDbEntity
  8
0
  6
Continuous
 62
     7
370
    15
100
AcDbSpline
210
0.0
220
0.0
230
1.0
 70
     8
 71
     3
 72
    23
 73
    19
 74
     0
 42
0.00000001
 43
0.00000001
 12
1.0
 22
0.0
 32
0.0
 13
1.0
 23
0.0
 33
0.0
 40
0.0
 40
0.0
 40
0.0
 40
0.0
 40
0.065807645810695
 40
0.129394273668055
 40
0.1908940606321893
 40
0.2512810689298349
 40
0.3108149644652729
 40
0.3703709874482443
 40
0.4307682625897291
 40
0.4928812506175015
 40
0.5551039481552499
 40
0.6160670509938433
 40
0.6772560331746539
 40
0.7382598051991157
 40
0.8007621343763004
 40
0.8647775815744859
 40
0.9310452949994087
 40
1.0
 40
1.0
 40
1.0
 40
1.0
 10
66.1356272274571
 20
149.1509647532218
 30
0.0
 10
66.17471096716932
 20
149.1501188175272
 30
0.0
 10
66.25155936449445
 20
149.1484554965949
 30
0.0
 10
66.36399831148807
 20
149.1324836471507
 30
0.0
 10
66.47133120470619
 20
149.1073437325204
 30
0.0
 10
66.57333357488254
 20
149.0722232107837
 30
0.0
 10
66.67019412551981
 20
149.0273134775893
 30
0.0
 10
66.76102168700035
 20
148.9712135372316
 30
0.0
 10
66.84717959998716
 20
148.9056802060819
 30
0.0
 10
66.92712219394136
 20
148.8303351941223
 30
0.0
 10
66.99964650210677
 20
148.7474135773701
 30
0.0
 10
67.06341249177375
 20
148.6582557063266
 30
0.0
 10
67.11757508207802
 20
148.5637280441921
 30
0.0
 10
67.16113583695444
 20
148.4629274354538
 30
0.0
 10
67.19592017123038
 20
148.3569682820435
 30
0.0
 10
67.2190721660742
 20
148.2447356994912
 30
0.0
 10
67.23448887503548
 20
148.1272875794778
 30
0.0
 10
67.23621126135507
 20
148.0469830094007
 30
0.0
 10
67.2370895672007
 20
148.0060328621962
 30
0.0
  0
SPLINE
  5
AA
330
1F
100
AcDbEntity
  8
0
  6
Continuous
 62
     7
370
    15
100
AcDbSpline
210
0.0
220
0.0
230
1.0
 70
     8
 71
     3
 72
    11
 73
     7
 74
     0
 42
0.00000001
 43
0.00000001
 12
1.0
 22
0.0
 32
0.0
 13
1.0
 23
0.0
 33
0.0
 40
0.0
 40
0.0
 40
0.0
 40
0.0
 40
0.2750683690187484
 40
0.5329014600899362
 40
0.7739734595924417
 40
1.0
 40
1.0
 40
1.0
 40
1.0
 10
65.7233676120725
 20
149.0829559391192
 30
0.0
 10
65.76042348644617
 20
149.0931862109295
 30
0.0
 10
65.83221338227854
 20
149.1130057445395
 30
0.0
 10
65.93817324324226
 20
149.1350115149689
 30
0.0
 10
66.03876544671324
 20
149.1482769590264
 30
0.0
 10
66.10404081712376
 20
149.1500882695386
 30
0.0
 10
66.1356272274571
 20
149.1509647532218
 30
0.0
  0
LINE
  5
AB
330
1F
100
AcDbEntity
  8
0
  6
Continuous
 62
     7
370
    15
100
AcDbLine
 10
65.911969445
 20
150.0035280325
 30
0.0
 11
65.7233673104
 21
149.0829566457
 31
0.0
  0
LINE
  5
AC
330
1F
100
AcDbEntity
  8
0
  6
Continuous
 62
     7
370
    15
100
AcDbLine
 10
67.1024744355
 20
150.0035280325
 30
0.0
 11
65.911969445
 21
150.0035280325
 31
0.0
  0
LINE
  5
AD
330
1F
100
AcDbEntity
  8
0
  6
Continuous
 62
     7
370
    15
100
AcDbLine
 10
67.1024744355
 20
150.3625044563
 30
0.0
 11
67.1024744355
 21
150.0035280325
 31
0.0
  0
LINE
  5
AE
330
1F
100
AcDbEntity
  8
0
  6
Continuous
 62
     7
370
    15
100
AcDbLine
 10
65.6665771224
 20
150.3625044563
 30
0.0
 11
67.1024744355
 21
150.3625044563
 31
0.0
  0
LINE
  5
AF
330
1F
100
AcDbEntity
  8
0
  6
Continuous
 62
     7
370
    15
100
AcDbLine
 10
168.4258508452
 20
107.3876859584
 30
0.0
 11
168.4258508452
 21
127.9102468827
 31
0.0
  0
LINE
  5
B0
330
1F
100
AcDbEntity
  8
0
  6
Continuous
 62
     7
370
    15
100
AcDbLine
 10
168.4258508452
 20
127.9102468827
 30
0.0
 11
167.5258505114
 21
127.9102468827
 31
0.0
  0
LINE
  5
B1
330
1F
100
AcDbEntity
  8
0
  6
Continuous
 62
     7
370
    15
100
AcDbLine
 10
167.5258505114
 20
127.9102468827
 30
0.0
 11
167.5258505114
 21
107.3876859584
 31
0.0
  0
ARC
  5
B2
330
1F
100
AcDbEntity
  8
0
  6
Continuous
 62
     7
370
    15
100
AcDbCircle
 10
167.9758536585
 20
102.9102439024
 30
0.0
 40
4.500000000000019
100
AcDbArc
 50
84.2608295227
 51
95.7391704773
  0
LINE
  5
B3
330
1F
100
AcDbEntity
  8
0
  6
Continuous
 62
     7
370
    15
100
AcDbLine
 10
93.4258553155
 20
107.3876859584
 30
0.0
 11
93.4258553155
 21
127.9102468827
 31
0.0
  0
LINE
  5
B4
330
1F
100
AcDbEntity
  8
0
  6
Continuous
 62
     7
370
    15
100
AcDbLine
 10
93.4258553155
 20
127.9102468827
 30
0.0
 11
92.5258549818
 21
127.9102468827
 31
0.0
  0
LINE
  5
B5
330
1F
100
AcDbEntity
  8
0
  6
Continuous
 62
     7
370
    15
100
AcDbLine
 10
92.5258549818
 20
127.9102468827
 30
0.0
 11
92.5258549818
 21
107.3876859584
 31
0.0
  0
ARC
  5
B6
330
1F
100
AcDbEntity
  8
0
  6
Continuous
 62
     7
370
    15
100
AcDbCircle
 10
92.9758536585
 20
102.9102439024
 30
0.0
 40
4.500000000000004
100
AcDbArc
 50
84.2608295227
 51
95.7391704773
  0
LINE
  5
B7
330
1F
100
AcDbEntity
  8
0
  6
Continuous
 62
     7
370
    15
100
AcDbLine
 10
205.475859619
 20
52.9102439024
 30
0.0
 11
205.475859619
 21
152.9102453926
 31
0.0
  0
LINE
  5
B8
330
1F
100
AcDbEntity
  8
0
  6
Continuous
 62
     7
370
    15
100
AcDbLine
 10
55.4758536585
 20
52.9102439024
 30
0.0
 11
205.475859619
 21
52.9102439024
 31
0.0
  0
LINE
  5
B9
330
1F
100
AcDbEntity
  8
0
  6
Continuous
 62
     7
370
    15
100
AcDbLine
 10
55.4758536585
 20
152.9102453926
 30
0.0
 11
55.4758536585
 21
52.9102439024
 31
0.0
  0
LINE
  5
BA
330
1F
100
AcDbEntity
  8
0
  6
Continuous
 62
     7
370
    15
100
AcDbLine
 10
205.475859619
 20
152.9102453926
 30
0.0
 11
55.4758536585
 21
152.9102453926
 31
0.0
  0
LINE
  5
BB
330
1F
100
AcDbEntity
  8
0
  6
Continuous
 62
     7
370
    15
100
AcDbLine
 10
69.4428191476
 20
150.0035280325
 30
0.0
 11
67.8204226264
 21
150.0035280325
 31
0.0
  0
LINE
  5
BC
330
1F
100
AcDbEntity
  8
0
  6
Continuous
 62
     7
370
    15
100
AcDbLine
 10
67.8631917529
 20
146.9221020081
 30
0.0
 11
69.4428191476
 21
150.0035280325
 31
0.0
  0
LINE
  5
BD
330
1F
100
AcDbEntity
  8
0
  6
Continuous
 62
     7
370
    15
100
AcDbLine
 10
68.1345251345
 20
146.7727625706
 30
0.0
 11
67.8631917529
 21
146.9221020081
 31
0.0
  0
LINE
  5
BE
330
1F
100
AcDbEntity
  8
0
  6
Continuous
 62
     7
370
    15
100
AcDbLine
 10
69.9742690616
 20
150.3625044563
 30
0.0
 11
68.1345251345
 21
146.7727625706
 31
0.0
  0
LINE
  5
BF
330
1F
100
AcDbEntity
  8
0
  6
Continuous
 62
     7
370
    15
100
AcDbLine
 10
67.8204226264
 20
150.3625044563
 30
0.0
 11
69.9742690616
 21
150.3625044563
 31
0.0
  0
LINE
  5
C0
330
1F
100
AcDbEntity
  8
0
  6
Continuous
 62
     7
370
    15
100
AcDbLine
 10
67.8204226264
 20
150.0035280325
 30
0.0
 11
67.8204226264
 21
150.3625044563
 31
0.0
  0
LINE
  5
C1
330
1F
100
AcDbEntity
  8
0
  6
Continuous
 62
     7
370
    15
100
AcDbLine
 10
73.3845255294
 20
148.6125046351
 30
0.0
 11
73.7435000905
 21
150.3625044563
 31
0.0
  0
SPLINE
  5
C2
330
1F
100
AcDbEntity
  8
0
  6
Continuous
 62
     7
370
    15
100
AcDbSpline
210
0.0
220
0.0
230
1.0
 70
     8
 71
     3
 72
    15
 73
    11
 74
     0
 42
0.00000001
 43
0.00000001
 12
1.0
 22
0.0
 32
0.0
 13
1.0
 23
0.0
 33
0.0
 40
0.0
 40
0.0
 40
0.0
 40
0.0
 40
0.1022030370352199
 40
0.2110233423738738
 40
0.3250996615652094
 40
0.4465020971348888
 40
0.5737877176488594
 40
0.7089007097660629
 40
0.8503578712934022
 40
1.0
 40
1.0
 40
1.0
 40
1.0
 10
74.15575943899557
 20
148.7919903942474
 30
0.0
 10
74.12863051018914
 20
148.7914098030899
 30
0.0
 10
74.07261615486443
 20
148.7902110296465
 30
0.0
 10
73.98669332813517
 20
148.7813845328203
 30
0.0
 10
73.89640160515845
 20
148.767145238392
 30
0.0
 10
73.80208710960225
 20
148.7475589909229
 30
0.0
 10
73.70346660149924
 20
148.7219279141642
 30
0.0
 10
73.60074820077196
 20
148.6912134135387
 30
0.0
 10
73.49371593417268
 20
148.6544914148251
 30
0.0
 10
73.42159820977393
 20
148.6267592010784
 30
0.0
 10
73.3845254646366
 20
148.6125032147603
 30
0.0
  0
SPLINE
  5
C3
330
1F
100
AcDbEntity
  8
0
  6
Continuous
 62
     7
370
    15
100
AcDbSpline
210
0.0
220
0.0
230
1.0
 70
     8
 71
     3
 72
    23
 73
    19
 74
     0
 42
0.00000001
 43
0.00000001
 12
1.0
 22
0.0
 32
0.0
 13
1.0
 23
0.0
 33
0.0
 40
0.0
 40
0.0
 40
0.0
 40
0.0
 40
0.0653513820265954
 40
0.1279160318306172
 40
0.1883602055716972
 40
0.2472160772654539
 40
0.3056301291974085
 40
0.3637698398318229
 40
0.4226609139127808
 40
0.4826872940903901
 40
0.5433002212395579
 40
0.6041179553231009
 40
0.6649648912652829
 40
0.7274134941125664
 40
0.7914676251494209
 40
0.8580554427291003
 40
0.9270368146149456
 40
1.0
 40
1.0
 40
1.0
 40
1.0
 10
74.99991008002121
 20
148.0193541762987
 30
0.0
 10
74.99925160055976
 20
148.0474299279199
 30
0.0
 10
74.99796272070536
 20
148.1023842169751
 30
0.0
 10
74.98743215040241
 20
148.1827834234164
 30
0.0
 10
74.96911517804871
 20
148.258856465718
 30
0.0
 10
74.94369129810174
 20
148.3309706996899
 30
0.0
 10
74.91141179036815
 20
148.3991941420379
 30
0.0
 10
74.87196547804933
 20
148.4635972022382
 30
0.0
 10
74.82461208010582
 20
148.5233310354616
 30
0.0
 10
74.77052019151716
 20
148.5784235890712
 30
0.0
 10
74.71126215057409
 20
148.6292684639443
 30
0.0
 10
74.64581840797695
 20
148.6726125503962
 30
0.0
 10
74.5755584811818
 20
148.709076468048
 30
0.0
 10
74.50132888171295
 20
148.7405444663908
 30
0.0
 10
74.42136398312554
 20
148.7631452117901
 30
0.0
 10
74.33724735074615
 20
148.7801130972322
 30
0.0
 10
74.24807064279919
 20
148.7899284599105
 30
0.0
 10
74.18709995466524
 20
148.7912903482863
 30
0.0
 10
74.15575943899557
 20
148.7919903942474
 30
0.0
  0
SPLINE
  5
C4
330
1F
100
AcDbEntity
  8
0
  6
Continuous
 62
     7
370
    15
100
AcDbSpline
210
0.0
220
0.0
230
1.0
 70
     8
 71
     3
 72
    23
 73
    19
 74
     0
 42
0.00000001
 43
0.00000001
 12
1.0
 22
0.0
 32
0.0
 13
1.0
 23
0.0
 33
0.0
 40
0.0
 40
0.0
 40
0.0
 40
0.0
 40
0.0642072952829838
 40
0.1264246897797417
 40
0.1876802842649222
 40
0.2482164244552114
 40
0.3083050600086133
 40
0.3696609913251431
 40
0.4316985517867797
 40
0.4959468922087618
 40
0.5597580239721212
 40
0.622295407826157
 40
0.6839106352841757
 40
0.7450924080566292
 40
0.80674022538929
 40
0.8690866181212012
 40
0.9332900029747994
 40
1.0
 40
1.0
 40
1.0
 40
1.0
 10
74.11158876591865
 20
147.131733983991
 30
0.0
 10
74.14154721033594
 20
147.1325547618962
 30
0.0
 10
74.20053563252452
 20
147.1341708803072
 30
0.0
 10
74.28734701921752
 20
147.146609892397
 30
0.0
 10
74.37115989341964
 20
147.1657674637047
 30
0.0
 10
74.45114725017862
 20
147.1944373186884
 30
0.0
 10
74.52870878976766
 20
147.2292820371143
 30
0.0
 10
74.60188256019076
 20
147.2739971129301
 30
0.0
 10
74.67278543733141
 20
147.3254571313751
 30
0.0
 10
74.73921357085248
 20
147.3844137614185
 30
0.0
 10
74.80005302011203
 20
147.4493834560378
 30
0.0
 10
74.85380914124595
 20
147.5188608494627
 30
0.0
 10
74.89858605467211
 20
147.5929776960056
 30
0.0
 10
74.9363201635418
 20
147.6704508488565
 30
0.0
 10
74.96497346236443
 20
147.752129406035
 30
0.0
 10
74.98541444358722
 20
147.8376305812073
 30
0.0
 10
74.99741750240572
 20
147.9271655614138
 30
0.0
 10
74.9990686823777
 20
147.98823487119
 30
0.0
 10
74.99991008002121
 20
148.0193541762987
 30
0.0
  0
SPLINE
  5
C5
330
1F
100
AcDbEntity
  8
0
  6
Continuous
 62
     7
370
    15
100
AcDbSpline
210
0.0
220
0.0
230
1.0
 70
     8
 71
     3
 72
    19
 73
    15
 74
     0
 42
0.00000001
 43
0.00000001
 12
1.0
 22
0.0
 32
0.0
 13
1.0
 23
0.0
 33
0.0
 40
0.0
 40
0.0
 40
0.0
 40
0.0
 40
0.0946872518675523
 40
0.1819941557072746
 40
0.2643769486105035
 40
0.3421798619477688
 40
0.4186176108621411
 40
0.4965090753719034
 40
0.5773690916117328
 40
0.6615105924541936
 40
0.746732550829193
 40
0.8312579843277417
 40
0.9152056162136541
 40
1.0
 40
1.0
 40
1.0
 40
1.0
 10
73.3396536697648
 20
147.7599391121962
 30
0.0
 10
73.34738222715497
 20
147.7265626597475
 30
0.0
 10
73.36223694359583
 20
147.6624112648756
 30
0.0
 10
73.39484269234782
 20
147.5722799235425
 30
0.0
 10
73.43470856782054
 20
147.4919606998665
 30
0.0
 10
73.48211291623781
 20
147.4203911165929
 30
0.0
 10
73.53866294672403
 20
147.3579821193206
 30
0.0
 10
73.60319237566469
 20
147.3023650573829
 30
0.0
 10
73.6755400988639
 20
147.2521899280553
 30
0.0
 10
73.75593332838382
 20
147.210367160858
 30
0.0
 10
73.84074640770417
 20
147.174698407458
 30
0.0
 10
73.92951361771377
 20
147.1509467125063
 30
0.0
 10
74.01981796418485
 20
147.1342458196635
 30
0.0
 10
74.08089633438135
 20
147.1325740588618
 30
0.0
 10
74.11158876591865
 20
147.131733983991
 30
0.0
  0
LINE
  5
C6
330
1F
100
AcDbEntity
  8
0
  6
Continuous
 62
     7
370
    15
100
AcDbLine
 10
73.0255509683
 20
147.759942148
 30
0.0
 11
73.3396544077
 21
147.759942148
 31
0.0
  0
SPLINE
  5
C7
330
1F
100
AcDbEntity
  8
0
  6
Continuous
 62
     7
370
    15
100
AcDbSpline
210
0.0
220
0.0
230
1.0
 70
     8
 71
     3
 72
    23
 73
    19
 74
     0
 42
0.00000001
 43
0.00000001
 12
1.0
 22
0.0
 32
0.0
 13
1.0
 23
0.0
 33
0.0
 40
0.0
 40
0.0
 40
0.0
 40
0.0
 40
0.0654211437588926
 40
0.1287083718818834
 40
0.1902361418635397
 40
0.2507244020335411
 40
0.3106371794134444
 40
0.3707664082897269
 40
0.4316147444123572
 40
0.4935229735663557
 40
0.555883455377538
 40
0.6173423673185112
 40
0.6786680390972777
 40
0.7407113595451512
 40
0.8029853625127491
 40
0.8668025802655217
 40
0.9323471713458902
 40
1.0
 40
1.0
 40
1.0
 40
1.0
 10
74.09335959925198
 20
146.7727596250167
 30
0.0
 10
74.05848541854976
 20
146.7734504630009
 30
0.0
 10
73.98987458784589
 20
146.7748096051232
 30
0.0
 10
73.88935402077432
 20
146.7890280903773
 30
0.0
 10
73.79263941508086
 20
146.8093920067698
 30
0.0
 10
73.70050931392343
 20
146.8400282766182
 30
0.0
 10
73.61213805021819
 20
146.8784155713084
 30
0.0
 10
73.52871533242934
 20
146.9269317428038
 30
0.0
 10
73.44810955638148
 20
146.9819108465509
 30
0.0
 10
73.37359751963197
 20
147.0467911995157
 30
0.0
 10
73.30444140616234
 20
147.1177068815482
 30
0.0
 10
73.24253489729199
 20
147.1946645227139
 30
0.0
 10
73.18740132055535
 20
147.2763939648
 30
0.0
 10
73.13992357356649
 20
147.3632921188757
 30
0.0
 10
73.0994255522501
 20
147.4551306498134
 30
0.0
 10
73.06761056397339
 20
147.5522536507053
 30
0.0
 10
73.04193220903026
 20
147.6541536546447
 30
0.0
 10
73.03106878855392
 20
147.7243071650553
 30
0.0
 10
73.02555110566223
 20
147.7599391121962
 30
0.0
  0
SPLINE
  5
C8
330
1F
100
AcDbEntity
  8
0
  6
Continuous
 62
     7
370
    15
100
AcDbSpline
210
0.0
220
0.0
230
1.0
 70
     8
 71
     3
 72
    31
 73
    27
 74
     0
 42
0.00000001
 43
0.00000001
 12
1.0
 22
0.0
 32
0.0
 13
1.0
 23
0.0
 33
0.0
 40
0.0
 40
0.0
 40
0.0
 40
0.0
 40
0.044014470576141
 40
0.0874341236677077
 40
0.1301183986579017
 40
0.1725536945581809
 40
0.2145547559681397
 40
0.2562980920971334
 40
0.2984382251332484
 40
0.3408490025880964
 40
0.3827151889670309
 40
0.4239240454075332
 40
0.4642462432504167
 40
0.5040736714617984
 40
0.5438619058684931
 40
0.583566724979655
 40
0.6230943188523358
 40
0.663229060768586
 40
0.7035512586114689
 40
0.7439378946861853
 40
0.7845412548000933
 40
0.8257501112405976
 40
0.8677573633885064
 40
0.9107451640323099
 40
0.9549144468914772
 40
0.9999999999999999
 40
0.9999999999999999
 40
0.9999999999999999
 40
0.9999999999999999
 10
75.31401264412378
 20
148.0060328621962
 30
0.0
 10
75.31334756885042
 20
147.9775106418442
 30
0.0
 10
75.31202640622051
 20
147.9208516542684
 30
0.0
 10
75.30530781857271
 20
147.8367074535831
 30
0.0
 10
75.29237210250852
 20
147.7543446205007
 30
0.0
 10
75.27500437840447
 20
147.673752228662
 30
0.0
 10
75.25246196043896
 20
147.5950828564829
 30
0.0
 10
75.22517290653666
 20
147.5181113285561
 30
0.0
 10
75.19177687902679
 20
147.4433167218129
 30
0.0
 10
75.15514550376787
 20
147.3699913267892
 30
0.0
 10
75.11389902573256
 20
147.2997928195945
 30
0.0
 10
75.0681205183936
 20
147.2341438330518
 30
0.0
 10
75.01975502717126
 20
147.1720595515718
 30
0.0
 10
74.96771364171299
 20
147.1142058185627
 30
0.0
 10
74.9115126466004
 20
147.0609628006697
 30
0.0
 10
74.85183267973869
 20
147.0120145191637
 30
0.0
 10
74.78914996070957
 20
146.9665331888606
 30
0.0
 10
74.7224947183886
 20
146.9263649936851
 30
0.0
 10
74.65335223542505
 20
146.8894020375324
 30
0.0
 10
74.58072401828456
 20
146.859078500197
 30
0.0
 10
74.50626331782706
 20
146.8319679721121
 30
0.0
 10
74.42889844223221
 20
146.8103584445005
 30
0.0
 10
74.34880462961645
 20
146.7934258899811
 30
0.0
 10
74.26584985413437
 20
146.7819252893786
 30
0.0
 10
74.18046918411062
 20
146.7735488519084
 30
0.0
 10
74.12259417153075
 20
146.7730244949578
 30
0.0
 10
74.09335959925198
 20
146.7727596250167
 30
0.0
  0
SPLINE
  5
C9
330
1F
100
AcDbEntity
  8
0
  6
Continuous
 62
     7
370
    15
100
AcDbSpline
210
0.0
220
0.0
230
1.0
 70
     8
 71
     3
 72
    23
 73
    19
 74
     0
 42
0.00000001
 43
0.00000001
 12
1.0
 22
0.0
 32
0.0
 13
1.0
 23
0.0
 33
0.0
 40
0.0
 40
0.0
 40
0.0
 40
0.0
 40
0.0658076458106969
 40
0.1293942736680559
 40
0.1908940606321892
 40
0.2512810689298356
 40
0.3108149644652745
 40
0.3703709874482441
 40
0.4307682625897296
 40
0.492881250617502
 40
0.5551039481552503
 40
0.6160670509938442
 40
0.6772560331746543
 40
0.738259805199116
 40
0.8007621343763007
 40
0.8647775815744863
 40
0.9310452949994088
 40
1.0
 40
1.0
 40
1.0
 40
1.0
 10
74.21255030438019
 20
149.1509647532218
 30
0.0
 10
74.2516340440924
 20
149.1501188175272
 30
0.0
 10
74.32848244141752
 20
149.1484554965949
 30
0.0
 10
74.44092138841116
 20
149.1324836471506
 30
0.0
 10
74.54825428162926
 20
149.1073437325204
 30
0.0
 10
74.65025665180562
 20
149.0722232107838
 30
0.0
 10
74.74711720244288
 20
149.0273134775893
 30
0.0
 10
74.83794476392343
 20
148.9712135372316
 30
0.0
 10
74.92410267691022
 20
148.9056802060819
 30
0.0
 10
75.00404527086444
 20
148.8303351941223
 30
0.0
 10
75.07656957902984
 20
148.7474135773701
 30
0.0
 10
75.14033556869681
 20
148.6582557063266
 30
0.0
 10
75.1944981590011
 20
148.5637280441921
 30
0.0
 10
75.23805891387752
 20
148.4629274354538
 30
0.0
 10
75.27284324815346
 20
148.3569682820435
 30
0.0
 10
75.29599524299726
 20
148.2447356994912
 30
0.0
 10
75.31141195195856
 20
148.1272875794778
 30
0.0
 10
75.31313433827815
 20
148.0469830094007
 30
0.0
 10
75.31401264412378
 20
148.0060328621962
 30
0.0
  0
SPLINE
  5
CA
330
1F
100
AcDbEntity
  8
0
  6
Continuous
 62
     7
370
    15
100
AcDbSpline
210
0.0
220
0.0
230
1.0
 70
     8
 71
     3
 72
    11
 73
     7
 74
     0
 42
0.00000001
 43
0.00000001
 12
1.0
 22
0.0
 32
0.0
 13
1.0
 23
0.0
 33
0.0
 40
0.0
 40
0.0
 40
0.0
 40
0.0
 40
0.2750683690187426
 40
0.5329014600899326
 40
0.773973459592444
 40
1.0
 40
1.0
 40
1.0
 40
1.0
 10
73.80029068899557
 20
149.0829559391192
 30
0.0
 10
73.83734656336924
 20
149.0931862109295
 30
0.0
 10
73.9091364592016
 20
149.1130057445395
 30
0.0
 10
74.01509632016534
 20
149.1350115149689
 30
0.0
 10
74.11568852363632
 20
149.1482769590264
 30
0.0
 10
74.18096389404684
 20
149.1500882695387
 30
0.0
 10
74.21255030438019
 20
149.1509647532218
 30
0.0
  0
LINE
  5
CB
330
1F
100
AcDbEntity
  8
0
  6
Continuous
 62
     7
370
    15
100
AcDbLine
 10
73.988892413
 20
150.0035280325
 30
0.0
 11
73.8002902784
 21
149.0829566457
 31
0.0
  0
LINE
  5
CC
330
1F
100
AcDbEntity
  8
0
  6
Continuous
 62
     7
370
    15
100
AcDbLine
 10
75.1793964722
 20
150.0035280325
 30
0.0
 11
73.988892413
 21
150.0035280325
 31
0.0
  0
LINE
  5
CD
330
1F
100
AcDbEntity
  8
0
  6
Continuous
 62
     7
370
    15
100
AcDbLine
 10
75.1793964722
 20
150.3625044563
 30
0.0
 11
75.1793964722
 21
150.0035280325
 31
0.0
  0
LINE
  5
CE
330
1F
100
AcDbEntity
  8
0
  6
Continuous
 62
     7
370
    15
100
AcDbLine
 10
73.7435000905
 20
150.3625044563
 30
0.0
 11
75.1793964722
 21
150.3625044563
 31
0.0
  0
LINE
  5
CF
330
1F
100
AcDbEntity
  8
0
  6
Continuous
 62
     7
370
    15
100
AcDbLine
 10
81.9999094077
 20
146.8625048139
 30
0.0
 11
81.6858078309
 21
146.8625048139
 31
0.0
  0
LINE
  5
D0
330
1F
100
AcDbEntity
  8
0
  6
Continuous
 62
     7
370
    15
100
AcDbLine
 10
81.9999094077
 20
147.7872857788
 30
0.0
 11
81.9999094077
 21
146.8625048139
 31
0.0
  0
SPLINE
  5
D1
330
1F
100
AcDbEntity
  8
0
  6
Continuous
 62
     7
370
    15
100
AcDbSpline
210
0.0
220
0.0
230
1.0
 70
     8
 71
     3
 72
    15
 73
    11
 74
     0
 42
0.00000001
 43
0.00000001
 12
1.0
 22
0.0
 32
0.0
 13
1.0
 23
0.0
 33
0.0
 40
0.0
 40
0.0
 40
0.0
 40
0.0
 40
0.0759990781976472
 40
0.1656113455724477
 40
0.2690450272477343
 40
0.3874479753729768
 40
0.5188266584719746
 40
0.6653935553138961
 40
0.8250827975617746
 40
1.0
 40
1.0
 40
1.0
 40
1.0
 10
82.04828748386736
 20
148.4736810993757
 30
0.0
 10
82.04434805663055
 20
148.4566601484586
 30
0.0
 10
82.0357635598058
 20
148.419569401424
 30
0.0
 10
82.02644872652138
 20
148.3583950774921
 30
0.0
 10
82.01811092990593
 20
148.2873087054856
 30
0.0
 10
82.01106238014103
 20
148.2064181051805
 30
0.0
 10
82.00673929375577
 20
148.1154268629236
 30
0.0
 10
82.00208105298337
 20
148.0149559038349
 30
0.0
 10
82.00034703899965
 20
147.9043758830271
 30
0.0
 10
82.00006008609556
 20
147.8274803755881
 30
0.0
 10
81.99991008002122
 20
147.7872828621962
 30
0.0
  0
SPLINE
  5
D2
330
1F
100
AcDbEntity
  8
0
  6
Continuous
 62
     7
370
    15
100
AcDbSpline
210
0.0
220
0.0
230
1.0
 70
     8
 71
     3
 72
    23
 73
    19
 74
     0
 42
0.00000001
 43
0.00000001
 12
1.0
 22
0.0
 32
0.0
 13
1.0
 23
0.0
 33
0.0
 40
0.0
 40
0.0
 40
0.0
 40
0.0
 40
0.0640199753991876
 40
0.1266938772026804
 40
0.1890843947192402
 40
0.2503626319435306
 40
0.3125164793751671
 40
0.374242602415243
 40
0.4378501622567378
 40
0.5026573259791458
 40
0.567745439123211
 40
0.6305759140874044
 40
0.6927720900845485
 40
0.7542675456219408
 40
0.8151205536325745
 40
0.8760513585553978
 40
0.937981798118654
 40
1.0
 40
1.0
 40
1.0
 40
1.0
 10
82.9176785095084
 20
149.1509647532218
 30
0.0
 10
82.89241073633048
 20
149.1504889269042
 30
0.0
 10
82.842406466066
 20
149.1495472789158
 30
0.0
 10
82.7682578002519
 20
149.1400933803759
 30
0.0
 10
82.69632873673139
 20
149.1246446617774
 30
0.0
 10
82.62592655887754
 20
149.1037401230683
 30
0.0
 10
82.5585433611653
 20
149.0752945865923
 30
0.0
 10
82.49221503619
 20
149.0423643972638
 30
0.0
 10
82.42882082724503
 20
149.0020561423005
 30
0.0
 10
82.36723501038378
 20
148.9568303748608
 30
0.0
 10
82.30991747703716
 20
148.9067606151432
 30
0.0
 10
82.25659036156136
 20
148.8539136601316
 30
0.0
 10
82.20905202140482
 20
148.7976386958819
 30
0.0
 10
82.16598343042989
 20
148.738838579805
 30
0.0
 10
82.12880514477476
 20
148.6767067863447
 30
0.0
 10
82.09635206268082
 20
148.611842467934
 30
0.0
 10
82.0688163662925
 20
148.544160322302
 30
0.0
 10
82.05513367403691
 20
148.4971852606429
 30
0.0
 10
82.04828748386736
 20
148.4736810993757
 30
0.0
  0
SPLINE
  5
D3
330
1F
100
AcDbEntity
  8
0
  6
Continuous
 62
     7
370
    15
100
AcDbSpline
210
0.0
220
0.0
230
1.0
 70
     8
 71
     3
 72
    15
 73
    11
 74
     0
 42
0.00000001
 43
0.00000001
 12
1.0
 22
0.0
 32
0.0
 13
1.0
 23
0.0
 33
0.0
 40
0.0
 40
0.0
 40
0.0
 40
0.0
 40
0.1362573959516143
 40
0.261954050111133
 40
0.3796376751609874
 40
0.4943790325909194
 40
0.6098662115170681
 40
0.7298874857748343
 40
0.8592125479192216
 40
1.0
 40
1.0
 40
1.0
 40
1.0
 10
83.5788363620725
 20
148.6475593045039
 30
0.0
 10
83.5674121169763
 20
148.6872535681619
 30
0.0
 10
83.54544907231725
 20
148.7635655588526
 30
0.0
 10
83.49440109512643
 20
148.867227968932
 30
0.0
 10
83.43064208406632
 20
148.9556127096442
 30
0.0
 10
83.35279482249061
 20
149.0275269977935
 30
0.0
 10
83.26223645838171
 20
149.0839385371485
 30
0.0
 10
83.15837649427093
 20
149.1230063193505
 30
0.0
 10
83.04219242583797
 20
149.1472540413216
 30
0.0
 10
82.96034095405965
 20
149.1496933448094
 30
0.0
 10
82.9176785095084
 20
149.1509647532218
 30
0.0
  0
SPLINE
  5
D4
330
1F
100
AcDbEntity
  8
0
  6
Continuous
 62
     7
370
    15
100
AcDbSpline
210
0.0
220
0.0
230
1.0
 70
     8
 71
     3
 72
    15
 73
    11
 74
     0
 42
0.00000001
 43
0.00000001
 12
1.0
 22
0.0
 32
0.0
 13
1.0
 23
0.0
 33
0.0
 40
0.0
 40
0.0
 40
0.0
 40
0.0
 40
0.1788665699309752
 40
0.3421413072700045
 40
0.4898709911205306
 40
0.6233121032799133
 40
0.7400556234382709
 40
0.8414680041078567
 40
0.9289010934037827
 40
1.0
 40
1.0
 40
1.0
 40
1.0
 10
83.61529469540582
 20
148.0656282147603
 30
0.0
 10
83.61510439224169
 20
148.1004508842946
 30
0.0
 10
83.61474037467607
 20
148.1670607247007
 30
0.0
 10
83.61353703011473
 20
148.2624268330631
 30
0.0
 10
83.61085081477941
 20
148.3489229676351
 30
0.0
 10
83.60650998894096
 20
148.4262719194007
 30
0.0
 10
83.6019446815611
 20
148.4945815227121
 30
0.0
 10
83.59566136438401
 20
148.5537525771468
 30
0.0
 10
83.58835113034499
 20
148.6038663524488
 30
0.0
 10
83.5817823489295
 20
148.6340309810796
 30
0.0
 10
83.5788363620725
 20
148.6475593045039
 30
0.0
  0
LINE
  5
D5
330
1F
100
AcDbEntity
  8
0
  6
Continuous
 62
     7
370
    15
100
AcDbLine
 10
83.6152940013
 20
146.8625048139
 30
0.0
 11
83.6152940013
 21
148.0656245687
 31
0.0
  0
LINE
  5
D6
330
1F
100
AcDbEntity
  8
0
  6
Continuous
 62
     7
370
    15
100
AcDbLine
 10
83.9293974408
 20
146.8625048139
 30
0.0
 11
83.6152940013
 21
146.8625048139
 31
0.0
  0
LINE
  5
D7
330
1F
100
AcDbEntity
  8
0
  6
Continuous
 62
     7
370
    15
100
AcDbLine
 10
83.9293974408
 20
148.1686959007
 30
0.0
 11
83.9293974408
 21
146.8625048139
 31
0.0
  0
SPLINE
  5
D8
330
1F
100
AcDbEntity
  8
0
  6
Continuous
 62
     7
370
    15
100
AcDbSpline
210
0.0
220
0.0
230
1.0
 70
     8
 71
     3
 72
    23
 73
    19
 74
     0
 42
0.00000001
 43
0.00000001
 12
1.0
 22
0.0
 32
0.0
 13
1.0
 23
0.0
 33
0.0
 40
0.0
 40
0.0
 40
0.0
 40
0.0
 40
0.077228553233494
 40
0.1511549072635814
 40
0.2234536379509592
 40
0.2954972249195528
 40
0.3669198573541516
 40
0.4367940850066736
 40
0.5066964308522682
 40
0.5778638467408501
 40
0.6159118097672348
 40
0.6580480255185089
 40
0.7037759860580352
 40
0.7540801428690654
 40
0.8089794210802159
 40
0.8679131928433395
 40
0.9317018161757247
 40
1.0
 40
1.0
 40
1.0
 40
1.0
 10
82.97306713130327
 20
149.4650673173244
 30
0.0
 10
83.02039752412085
 20
149.463321887057
 30
0.0
 10
83.11303451960438
 20
149.4599056590022
 30
0.0
 10
83.24791598230749
 20
149.4328922779719
 30
0.0
 10
83.37387685722553
 20
149.386734839894
 30
0.0
 10
83.49054270001085
 20
149.3235678148411
 30
0.0
 10
83.59536739712439
 20
149.2448949875949
 30
0.0
 10
83.68821716135078
 20
149.1540634649553
 30
0.0
 10
83.7640579601419
 20
149.0487895468131
 30
0.0
 10
83.81565707709717
 20
148.9515332928438
 30
0.0
 10
83.84923048494332
 20
148.8649945388872
 30
0.0
 10
83.87048231130811
 20
148.7907580266338
 30
0.0
 10
83.88850150962742
 20
148.7080361133872
 30
0.0
 10
83.90420124540957
 20
148.6168713810338
 30
0.0
 10
83.9146648270013
 20
148.5168262097195
 30
0.0
 10
83.9230694449949
 20
148.4083519552701
 30
0.0
 10
83.9290458992069
 20
148.2914548371472
 30
0.0
 10
83.92927750368067
 20
148.2105345877626
 30
0.0
 10
83.92939725950839
 20
148.1686931186064
 30
0.0
  0
SPLINE
  5
D9
330
1F
100
AcDbEntity
  8
0
  6
Continuous
 62
     7
370
    15
100
AcDbSpline
210
0.0
220
0.0
230
1.0
 70
     8
 71
     3
 72
    15
 73
    11
 74
     0
 42
0.00000001
 43
0.00000001
 12
1.0
 22
0.0
 32
0.0
 13
1.0
 23
0.0
 33
0.0
 40
0.0
 40
0.0
 40
0.0
 40
0.0
 40
0.1407235132503507
 40
0.2739958912186161
 40
0.4006841600587745
 40
0.522554679004769
 40
0.6415337705510096
 40
0.759969142862268
 40
0.878404515173524
 40
1.0
 40
1.0
 40
1.0
 40
1.0
 10
81.99991008002122
 20
148.9371226057859
 30
0.0
 10
82.033627381667
 20
148.9792665878804
 30
0.0
 10
82.09927669570516
 20
149.06132308055
 30
0.0
 10
82.20977281232008
 20
149.1683842714129
 30
0.0
 10
82.32324368443652
 20
149.2611828926378
 30
0.0
 10
82.44360849426337
 20
149.3350533498522
 30
0.0
 10
82.56865901460567
 20
149.3934098931084
 30
0.0
 10
82.69892265903461
 20
149.4347975395774
 30
0.0
 10
82.83442363032111
 20
149.4602486362359
 30
0.0
 10
82.92644878036015
 20
149.4634470540991
 30
0.0
 10
82.97306713130327
 20
149.4650673173244
 30
0.0
  0
LINE
  5
DA
330
1F
100
AcDbEntity
  8
0
  6
Continuous
 62
     7
370
    15
100
AcDbLine
 10
81.9999094077
 20
150.4522466996
 30
0.0
 11
81.9999094077
 21
148.9371189811
 31
0.0
  0
LINE
  5
DB
330
1F
100
AcDbEntity
  8
0
  6
Continuous
 62
     7
370
    15
100
AcDbLine
 10
81.6858078309
 20
150.4522466996
 30
0.0
 11
81.9999094077
 21
150.4522466996
 31
0.0
  0
LINE
  5
DC
330
1F
100
AcDbEntity
  8
0
  6
Continuous
 62
     7
370
    15
100
AcDbLine
 10
81.6858078309
 20
146.8625048139
 30
0.0
 11
81.6858078309
 21
150.4522466996
 31
0.0
  0
SPLINE
  5
DD
330
1F
100
AcDbEntity
  8
0
  6
Continuous
 62
     7
370
    15
100
AcDbSpline
210
0.0
220
0.0
230
1.0
 70
     8
 71
     3
 72
    23
 73
    19
 74
     0
 42
0.00000001
 43
0.00000001
 12
1.0
 22
0.0
 32
0.0
 13
1.0
 23
0.0
 33
0.0
 40
0.0
 40
0.0
 40
0.0
 40
0.0
 40
0.0679784896192481
 40
0.1330435352439087
 40
0.1965074380533907
 40
0.2586134167685792
 40
0.3197283376065493
 40
0.3808728540495662
 40
0.4426356023162029
 40
0.5050793035048753
 40
0.5678805200585746
 40
0.6288138541554867
 40
0.6889100905404423
 40
0.7487650058898448
 40
0.8093857829631192
 40
0.8708843357532254
 40
0.9340374630737025
 40
1.0
 40
1.0
 40
1.0
 40
1.0
 10
63.7370895672007
 20
141.9607604262987
 30
0.0
 10
63.73762376252311
 20
141.9843858242472
 30
0.0
 10
63.73866925845281
 20
142.0306240752323
 30
0.0
 10
63.74701331002861
 20
142.0985628955355
 30
0.0
 10
63.76220502122462
 20
142.1631110493841
 30
0.0
 10
63.78125994382349
 20
142.2252379123926
 30
0.0
 10
63.80774294826752
 20
142.2837400064303
 30
0.0
 10
63.83938885341248
 20
142.3393974774605
 30
0.0
 10
63.8765762783364
 20
142.3921333954629
 30
0.0
 10
63.91941956918456
 20
142.4411365275509
 30
0.0
 10
63.96652621442811
 20
142.4856458538581
 30
0.0
 10
64.01742098416345
 20
142.5244444818295
 30
0.0
 10
64.07095924074429
 20
142.5575508366259
 30
0.0
 10
64.12736766030334
 20
142.5853159972171
 30
0.0
 10
64.18718813326727
 20
142.6063173798119
 30
0.0
 10
64.25000251960397
 20
142.6207747648804
 30
0.0
 10
64.31568367448322
 20
142.6304299676813
 30
0.0
 10
64.36058480044473
 20
142.6312930519778
 30
0.0
 10
64.3835238620725
 20
142.631733983991
 30
0.0
  0
SPLINE
  5
DE
330
1F
100
AcDbEntity
  8
0
  6
Continuous
 62
     7
370
    15
100
AcDbSpline
210
0.0
220
0.0
230
1.0
 70
     8
 71
     3
 72
    11
 73
     7
 74
     0
 42
0.00000001
 43
0.00000001
 12
1.0
 22
0.0
 32
0.0
 13
1.0
 23
0.0
 33
0.0
 40
0.0
 40
0.0
 40
0.0
 40
0.0
 40
0.2462523706929813
 40
0.4925907964763658
 40
0.7405699911180718
 40
1.0
 40
1.0
 40
1.0
 40
1.0
 10
63.8541769069443
 20
141.5667299775808
 30
0.0
 10
63.83604630728798
 20
141.5958755926165
 30
0.0
 10
63.79977877207538
 20
141.6541770078834
 30
0.0
 10
63.76456358089727
 20
141.7514874846154
 30
0.0
 10
63.74035755202014
 20
141.8539325419447
 30
0.0
 10
63.73819516185081
 20
141.9246193962908
 30
0.0
 10
63.7370895672007
 20
141.9607604262987
 30
0.0
  0
SPLINE
  5
DF
330
1F
100
AcDbEntity
  8
0
  6
Continuous
 62
     7
370
    15
100
AcDbSpline
210
0.0
220
0.0
230
1.0
 70
     8
 71
     3
 72
    15
 73
    11
 74
     0
 42
0.00000001
 43
0.00000001
 12
1.0
 22
0.0
 32
0.0
 13
1.0
 23
0.0
 33
0.0
 40
0.0
 40
0.0
 40
0.0
 40
0.0
 40
0.1577616635135498
 40
0.3059502132085448
 40
0.4437754990007314
 40
0.5728243624015459
 40
0.6921541564432369
 40
0.8022957069908432
 40
0.9055643918329925
 40
1.0
 40
1.0
 40
1.0
 40
1.0
 10
64.29518251591865
 20
141.2175713237346
 30
0.0
 10
64.26913587587923
 20
141.2321104553989
 30
0.0
 10
64.21862312838441
 20
141.2603064716774
 30
0.0
 10
64.14707583744855
 20
141.3042225519358
 30
0.0
 10
64.08252848322981
 20
141.3488898266159
 30
0.0
 10
64.02342790866707
 20
141.3918026658657
 30
0.0
 10
63.97126690298961
 20
141.4352236098132
 30
0.0
 10
63.92625095468465
 20
141.4792008612807
 30
0.0
 10
63.8866077388531
 20
141.52196084736
 30
0.0
 10
63.86466032712189
 20
141.5522581439747
 30
0.0
 10
63.8541769069443
 20
141.5667299775808
 30
0.0
  0
SPLINE
  5
E0
330
1F
100
AcDbEntity
  8
0
  6
Continuous
 62
     7
370
    15
100
AcDbSpline
210
0.0
220
0.0
230
1.0
 70
     8
 71
     3
 72
    15
 73
    11
 74
     0
 42
0.00000001
 43
0.00000001
 12
1.0
 22
0.0
 32
0.0
 13
1.0
 23
0.0
 33
0.0
 40
0.0
 40
0.0
 40
0.0
 40
0.0
 40
0.0768750740350562
 40
0.1674616757257211
 40
0.2722700232466418
 40
0.3895508405125286
 40
0.5208013683480497
 40
0.6662632933752219
 40
0.8255449152058588
 40
1.0
 40
1.0
 40
1.0
 40
1.0
 10
64.68290286848274
 20
140.9539495288628
 30
0.0
 10
64.67488047405537
 20
140.9629848910146
 30
0.0
 10
64.65740480159577
 20
140.9826671730249
 30
0.0
 10
64.6253495603302
 20
141.0110922518865
 30
0.0
 10
64.58696769812947
 20
141.0417303510398
 30
0.0
 10
64.54182753519723
 20
141.0740619399786
 30
0.0
 10
64.48983807325965
 20
141.1076605452707
 30
0.0
 10
64.43078859786982
 20
141.1423498975203
 30
0.0
 10
64.36548804532143
 20
141.1797776233087
 30
0.0
 10
64.3193174140035
 20
141.204597278652
 30
0.0
 10
64.29518251591865
 20
141.2175713237346
 30
0.0
  0
SPLINE
  5
E1
330
1F
100
AcDbEntity
  8
0
  6
Continuous
 62
     7
370
    15
100
AcDbSpline
210
0.0
220
0.0
230
1.0
 70
     8
 71
     3
 72
    11
 73
     7
 74
     0
 42
0.00000001
 43
0.00000001
 12
1.0
 22
0.0
 32
0.0
 13
1.0
 23
0.0
 33
0.0
 40
0.0
 40
0.0
 40
0.0
 40
0.0
 40
0.2534754346498442
 40
0.5004533151029164
 40
0.7455781350009868
 40
1.0
 40
1.0
 40
1.0
 40
1.0
 10
64.76914084925198
 20
140.7099591442474
 30
0.0
 10
64.76805455491318
 20
140.7322687629095
 30
0.0
 10
64.76590981215425
 20
140.7763161185578
 30
0.0
 10
64.74906654014973
 20
140.8400664596019
 30
0.0
 10
64.72245368788992
 20
140.9005357402843
 30
0.0
 10
64.69624903953618
 20
140.9359253875261
 30
0.0
 10
64.68290286848274
 20
140.9539495288628
 30
0.0
  0
SPLINE
  5
E2
330
1F
100
AcDbEntity
  8
0
  6
Continuous
 62
     7
370
    15
100
AcDbSpline
210
0.0
220
0.0
230
1.0
 70
     8
 71
     3
 72
    15
 73
    11
 74
     0
 42
0.00000001
 43
0.00000001
 12
1.0
 22
0.0
 32
0.0
 13
1.0
 23
0.0
 33
0.0
 40
0.0
 40
0.0
 40
0.0
 40
0.0
 40
0.1340420464623709
 40
0.2618956736507323
 40
0.3878360446911133
 40
0.5176862058208171
 40
0.6445086536782113
 40
0.7647182630567158
 40
0.8802907821584961
 40
1.0
 40
1.0
 40
1.0
 40
1.0
 10
64.31761841335455
 20
140.2984006506577
 30
0.0
 10
64.34793633931258
 20
140.2997714755179
 30
0.0
 10
64.40717248089675
 20
140.3024498373431
 30
0.0
 10
64.49201623951073
 20
140.3267669293729
 30
0.0
 10
64.5703548659612
 20
140.364896881198
 30
0.0
 10
64.63837821148007
 20
140.4189815793581
 30
0.0
 10
64.69628037254763
 20
140.4819371519578
 30
0.0
 10
64.73820854695536
 20
140.5528512712582
 30
0.0
 10
64.76448472241624
 20
140.6296427279473
 30
0.0
 10
64.7675707210722
 20
140.6828750305665
 30
0.0
 10
64.76914084925198
 20
140.7099591442474
 30
0.0
  0
SPLINE
  5
E3
330
1F
100
AcDbEntity
  8
0
  6
Continuous
 62
     7
370
    15
100
AcDbSpline
210
0.0
220
0.0
230
1.0
 70
     8
 71
     3
 72
    15
 73
    11
 74
     0
 42
0.00000001
 43
0.00000001
 12
1.0
 22
0.0
 32
0.0
 13
1.0
 23
0.0
 33
0.0
 40
0.0
 40
0.0
 40
0.0
 40
0.0
 40
0.14747581774837
 40
0.2859041715443827
 40
0.417171648244443
 40
0.5405007435865029
 40
0.6592377183802374
 40
0.7750060983159565
 40
0.8872285734286373
 40
1.0
 40
1.0
 40
1.0
 40
1.0
 10
63.81070735566225
 20
140.5676314198885
 30
0.0
 10
63.83047976863867
 20
140.5462766553607
 30
0.0
 10
63.8688115808488
 20
140.5048772154114
 30
0.0
 10
63.9301127976461
 20
140.4497528747399
 30
0.0
 10
63.99249219874913
 20
140.4035516036079
 30
0.0
 10
64.05532688532344
 20
140.3649081888159
 30
0.0
 10
64.11954697964697
 20
140.3351327856584
 30
0.0
 10
64.18479259388064
 20
140.3142141917488
 30
0.0
 10
64.25093101794207
 20
140.3007699995234
 30
0.0
 10
64.29535315376192
 20
140.2991917172038
 30
0.0
 10
64.31761841335455
 20
140.2984006506577
 30
0.0
  0
LINE
  5
E4
330
1F
100
AcDbEntity
  8
0
  6
Continuous
 62
     7
370
    15
100
AcDbLine
 10
63.6024738618
 20
140.3306553104
 30
0.0
 11
63.8107073449
 21
140.5676284769
 31
0.0
  0
SPLINE
  5
E5
330
1F
100
AcDbEntity
  8
0
  6
Continuous
 62
     7
370
    15
100
AcDbSpline
210
0.0
220
0.0
230
1.0
 70
     8
 71
     3
 72
    15
 73
    11
 74
     0
 42
0.00000001
 43
0.00000001
 12
1.0
 22
0.0
 32
0.0
 13
1.0
 23
0.0
 33
0.0
 40
0.0
 40
0.0
 40
0.0
 40
0.0
 40
0.1267425189618443
 40
0.2517239612496061
 40
0.3772186880262399
 40
0.5046935492516252
 40
0.6314582385934809
 40
0.7554010672029434
 40
0.8777005336014722
 40
0.9999999999999999
 40
0.9999999999999999
 40
0.9999999999999999
 40
0.9999999999999999
 10
64.3337442146366
 20
139.9842980865551
 30
0.0
 10
64.29837703919864
 20
139.9852907868807
 30
0.0
 10
64.22813411225998
 20
139.987262394044
 30
0.0
 10
64.12424439311127
 20
140.0057684552077
 30
0.0
 10
64.02272363444659
 20
140.0345638491754
 30
0.0
 10
63.92434009414022
 20
140.0742797833334
 30
0.0
 10
63.83129398025117
 20
140.1244304961907
 30
0.0
 10
63.74616305565027
 20
140.184492889777
 30
0.0
 10
63.66865159318953
 20
140.2524828871808
 30
0.0
 10
63.62453331945339
 20
140.3045957978748
 30
0.0
 10
63.60247418258531
 20
140.3306522532218
 30
0.0
  0
SPLINE
  5
E6
330
1F
100
AcDbEntity
  8
0
  6
Continuous
 62
     7
370
    15
100
AcDbSpline
210
0.0
220
0.0
230
1.0
 70
     8
 71
     3
 72
    23
 73
    19
 74
     0
 42
0.00000001
 43
0.00000001
 12
1.0
 22
0.0
 32
0.0
 13
1.0
 23
0.0
 33
0.0
 40
0.0
 40
0.0
 40
0.0
 40
0.0
 40
0.0645481255642548
 40
0.1271991327555093
 40
0.1885973380874277
 40
0.2486395150940113
 40
0.3095246994640627
 40
0.3700369910533508
 40
0.4318892436070736
 40
0.4957042857252907
 40
0.5595193278435101
 40
0.6213715803972354
 40
0.6823971072916394
 40
0.7435684819321653
 40
0.8054984835712127
 40
0.8686397008205239
 40
0.9330662250811641
 40
1.0
 40
1.0
 40
1.0
 40
1.0
 10
65.08324341335454
 20
140.72328045835
 30
0.0
 10
65.08252387953911
 20
140.6980113121052
 30
0.0
 10
65.0811059595529
 20
140.6482156989915
 30
0.0
 10
65.07124789261506
 20
140.5748808692905
 30
0.0
 10
65.05429291629189
 20
140.5047463117541
 30
0.0
 10
65.03119916233487
 20
140.4370510270526
 30
0.0
 10
65.00001478943106
 20
140.373092087435
 30
0.0
 10
64.96346699227973
 20
140.3112558384474
 30
0.0
 10
64.91959208054391
 20
140.2528799076581
 30
0.0
 10
64.86950070492713
 20
140.1980409474802
 30
0.0
 10
64.8146552109481
 20
140.1479552000598
 30
0.0
 10
64.75614907259461
 20
140.1039312461937
 30
0.0
 10
64.69391024198472
 20
140.0673569089945
 30
0.0
 10
64.62838344056235
 20
140.0370915637517
 30
0.0
 10
64.55941978648981
 20
140.0130233058052
 30
0.0
 10
64.48700849720328
 20
139.9963607745515
 30
0.0
 10
64.41137974263165
 20
139.9863880134573
 30
0.0
 10
64.35994993450068
 20
139.9850035372727
 30
0.0
 10
64.3337442146366
 20
139.9842980865551
 30
0.0
  0
SPLINE
  5
E7
330
1F
100
AcDbEntity
  8
0
  6
Continuous
 62
     7
370
    15
100
AcDbSpline
210
0.0
220
0.0
230
1.0
 70
     8
 71
     3
 72
    11
 73
     7
 74
     0
 42
0.00000001
 43
0.00000001
 12
1.0
 22
0.0
 32
0.0
 13
1.0
 23
0.0
 33
0.0
 40
0.0
 40
0.0
 40
0.0
 40
0.0
 40
0.2488386141270693
 40
0.495235025457662
 40
0.7433356038750205
 40
1.0
 40
1.0
 40
1.0
 40
1.0
 10
64.96405270822635
 20
141.1187131506577
 30
0.0
 10
64.98226323563838
 20
141.0890470626072
 30
0.0
 10
65.01850556498161
 20
141.0300060414921
 30
0.0
 10
65.05656383143757
 20
140.9327876140493
 30
0.0
 10
65.07862410628037
 20
140.8296771116121
 30
0.0
 10
65.08168632650396
 20
140.7591448914954
 30
0.0
 10
65.08324341335454
 20
140.72328045835
 30
0.0
  0
SPLINE
  5
E8
330
1F
100
AcDbEntity
  8
0
  6
Continuous
 62
     7
370
    15
100
AcDbSpline
210
0.0
220
0.0
230
1.0
 70
     8
 71
     3
 72
    15
 73
    11
 74
     0
 42
0.00000001
 43
0.00000001
 12
1.0
 22
0.0
 32
0.0
 13
1.0
 23
0.0
 33
0.0
 40
0.0
 40
0.0
 40
0.0
 40
0.0
 40
0.1589891012267997
 40
0.3071145916055769
 40
0.4462131585962216
 40
0.5748760724117382
 40
0.6941521095829676
 40
0.8045811801532508
 40
0.906593319045761
 40
1.0
 40
1.0
 40
1.0
 40
1.0
 10
64.50341568899557
 20
141.4776875096321
 30
0.0
 10
64.53062926609267
 20
141.4624426068179
 30
0.0
 10
64.58319693615186
 20
141.4329944744258
 30
0.0
 10
64.65788970340736
 20
141.3872847709163
 30
0.0
 10
64.72567674437826
 20
141.3418533466427
 30
0.0
 10
64.78713241202693
 20
141.2971860727651
 30
0.0
 10
64.8410742208688
 20
141.2520332051483
 30
0.0
 10
64.88913877352061
 20
141.2081254481747
 30
0.0
 10
64.9301272174469
 20
141.1641361398907
 30
0.0
 10
64.95308114413432
 20
141.1334030262106
 30
0.0
 10
64.96405270822635
 20
141.1187131506577
 30
0.0
  0
SPLINE
  5
E9
330
1F
100
AcDbEntity
  8
0
  6
Continuous
 62
     7
370
    15
100
AcDbSpline
210
0.0
220
0.0
230
1.0
 70
     8
 71
     3
 72
    15
 73
    11
 74
     0
 42
0.00000001
 43
0.00000001
 12
1.0
 22
0.0
 32
0.0
 13
1.0
 23
0.0
 33
0.0
 40
0.0
 40
0.0
 40
0.0
 40
0.0
 40
0.0834251049856425
 40
0.1775598214659664
 40
0.2839823599504464
 40
0.4022167468072193
 40
0.5335684803800502
 40
0.6761209941988153
 40
0.8316493725539871
 40
1.0
 40
1.0
 40
1.0
 40
1.0
 10
64.13813123386737
 20
141.7413093045039
 30
0.0
 10
64.14609472763905
 20
141.7315247201708
 30
0.0
 10
64.16304402045189
 20
141.7106994656195
 30
0.0
 10
64.19485253542867
 20
141.681795612202
 30
0.0
 10
64.23087503828897
 20
141.6498533612268
 30
0.0
 10
64.27419497602125
 20
141.6179165242483
 30
0.0
 10
64.32294600390532
 20
141.584284799042
 30
0.0
 10
64.37818528811906
 20
141.5502826660673
 30
0.0
 10
64.43815979309012
 20
141.513318241179
 30
0.0
 10
64.48109709970674
 20
141.4898738056352
 30
0.0
 10
64.50341568899557
 20
141.4776875096321
 30
0.0
  0
SPLINE
  5
EA
330
1F
100
AcDbEntity
  8
0
  6
Continuous
 62
     7
370
    15
100
AcDbSpline
210
0.0
220
0.0
230
1.0
 70
     8
 71
     3
 72
    11
 73
     7
 74
     0
 42
0.00000001
 43
0.00000001
 12
1.0
 22
0.0
 32
0.0
 13
1.0
 23
0.0
 33
0.0
 40
0.0
 40
0.0
 40
0.0
 40
0.0
 40
0.240039931495966
 40
0.4794031936060649
 40
0.7317567388575735
 40
1.0
 40
1.0
 40
1.0
 40
1.0
 10
64.05119213130327
 20
141.9733806186064
 30
0.0
 10
64.0523029435686
 20
141.9531685744548
 30
0.0
 10
64.05452143673423
 20
141.9128014636361
 30
0.0
 10
64.07176811594553
 20
141.8532534297956
 30
0.0
 10
64.09923418812521
 20
141.7951963916028
 30
0.0
 10
64.12490438240776
 20
141.7596334852495
 30
0.0
 10
64.13813123386737
 20
141.7413093045039
 30
0.0
  0
SPLINE
  5
EB
330
1F
100
AcDbEntity
  8
0
  6
Continuous
 62
     7
370
    15
100
AcDbSpline
210
0.0
220
0.0
230
1.0
 70
     8
 71
     3
 72
    15
 73
    11
 74
     0
 42
0.00000001
 43
0.00000001
 12
1.0
 22
0.0
 32
0.0
 13
1.0
 23
0.0
 33
0.0
 40
0.0
 40
0.0
 40
0.0
 40
0.0
 40
0.1249584925460658
 40
0.2459006286062648
 40
0.3691660295860744
 40
0.4985108411773576
 40
0.6285038663666062
 40
0.7510283288509858
 40
0.8737241742784192
 40
1.0
 40
1.0
 40
1.0
 40
1.0
 10
64.3835238620725
 20
142.3176314198885
 30
0.0
 10
64.36138447223075
 20
142.3165565469108
 30
0.0
 10
64.31781728629466
 20
142.3144413490118
 30
0.0
 10
64.255391467961
 20
142.293327918677
 30
0.0
 10
64.19744084294305
 20
142.2609191802171
 30
0.0
 10
64.14728386293687
 20
142.2149505966619
 30
0.0
 10
64.10479618291558
 20
142.1621863278338
 30
0.0
 10
64.07378250189728
 20
142.1031900029479
 30
0.0
 10
64.0548165182678
 20
142.0397419592416
 30
0.0
 10
64.05241178622568
 20
141.9957121015732
 30
0.0
 10
64.05119213130327
 20
141.9733806186064
 30
0.0
  0
SPLINE
  5
EC
330
1F
100
AcDbEntity
  8
0
  6
Continuous
 62
     7
370
    15
100
AcDbSpline
210
0.0
220
0.0
230
1.0
 70
     8
 71
     3
 72
    15
 73
    11
 74
     0
 42
0.00000001
 43
0.00000001
 12
1.0
 22
0.0
 32
0.0
 13
1.0
 23
0.0
 33
0.0
 40
0.0
 40
0.0
 40
0.0
 40
0.0
 40
0.1582230975563157
 40
0.3050355053581609
 40
0.4413089638878993
 40
0.5659632271047227
 40
0.6835251144150624
 40
0.793334129629598
 40
0.8985175121609998
 40
1.0
 40
1.0
 40
1.0
 40
1.0
 10
64.82523059284173
 20
142.0484006506577
 30
0.0
 10
64.80684008931372
 20
142.0697137969925
 30
0.0
 10
64.77138536352406
 20
142.1108030340471
 30
0.0
 10
64.71515388252162
 20
142.1657401005506
 30
0.0
 10
64.65913027894732
 20
142.2118770394929
 30
0.0
 10
64.60408146537408
 20
142.2508292984022
 30
0.0
 10
64.54862319629986
 20
142.280278445008
 30
0.0
 10
64.49340627816758
 20
142.3017733069483
 30
0.0
 10
64.43837353965263
 20
142.3150751126091
 30
0.0
 10
64.4015875044373
 20
142.3167895513031
 30
0.0
 10
64.3835238620725
 20
142.3176314198885
 30
0.0
  0
LINE
  5
ED
330
1F
100
AcDbEntity
  8
0
  6
Continuous
 62
     7
370
    15
100
AcDbLine
 10
65.0383711749
 20
142.2678509691
 30
0.0
 11
64.8252305531
 21
142.0484015682
 31
0.0
  0
SPLINE
  5
EE
330
1F
100
AcDbEntity
  8
0
  6
Continuous
 62
     7
370
    15
100
AcDbSpline
210
0.0
220
0.0
230
1.0
 70
     8
 71
     3
 72
    15
 73
    11
 74
     0
 42
0.00000001
 43
0.00000001
 12
1.0
 22
0.0
 32
0.0
 13
1.0
 23
0.0
 33
0.0
 40
0.0
 40
0.0
 40
0.0
 40
0.0
 40
0.1057142614175162
 40
0.2134116126389945
 40
0.3261267300734706
 40
0.4444516715568694
 40
0.569061079855084
 40
0.7027122044812116
 40
0.8463179465861955
 40
0.9999999999999999
 40
0.9999999999999999
 40
0.9999999999999999
 40
0.9999999999999999
 10
64.3835238620725
 20
142.631733983991
 30
0.0
 10
64.41071592553813
 20
142.6306296432936
 30
0.0
 10
64.4656101473524
 20
142.6284002456138
 30
0.0
 10
64.54796477340048
 20
142.610694555009
 30
0.0
 10
64.63019811548794
 20
142.5815614509096
 30
0.0
 10
64.71252146545555
 20
142.5413252175712
 30
0.0
 10
64.794331754839
 20
142.489258341691
 30
0.0
 10
64.87634861151474
 20
142.4263290423227
 30
0.0
 10
64.9595566418049
 20
142.3529513278135
 30
0.0
 10
65.01151295490627
 20
142.2968521023936
 30
0.0
 10
65.03837161848274
 20
142.2678517724526
 30
0.0
  0
SPLINE
  5
EF
330
1F
100
AcDbEntity
  8
0
  6
Continuous
 62
     7
370
    15
100
AcDbSpline
210
0.0
220
0.0
230
1.0
 70
     8
 71
     3
 72
    15
 73
    11
 74
     0
 42
0.00000001
 43
0.00000001
 12
1.0
 22
0.0
 32
0.0
 13
1.0
 23
0.0
 33
0.0
 40
0.0
 40
0.0
 40
0.0
 40
0.0
 40
0.1289191318119513
 40
0.255237724924902
 40
0.3786785959785525
 40
0.501087887185129
 40
0.6227136794297822
 40
0.7462407949383852
 40
0.8715890472316706
 40
1.0
 40
1.0
 40
1.0
 40
1.0
 10
70.15375623386737
 20
141.3010048173244
 30
0.0
 10
70.154879544221
 20
141.3438213632173
 30
0.0
 10
70.15710350566893
 20
141.4285907656268
 30
0.0
 10
70.17342401474322
 20
141.5535178262779
 30
0.0
 10
70.20078257122769
 20
141.6742152153425
 30
0.0
 10
70.23951396768229
 20
141.7901406913262
 30
0.0
 10
70.28902915857364
 20
141.9018961273658
 30
0.0
 10
70.34939044651784
 20
142.0093009583522
 30
0.0
 10
70.42118107905834
 20
142.112288758831
 30
0.0
 10
70.47638303059067
 20
142.176010838859
 30
0.0
 10
70.50431713130325
 20
142.2082564198885
 30
0.0
  0
SPLINE
  5
F0
330
1F
100
AcDbEntity
  8
0
  6
Continuous
 62
     7
370
    15
100
AcDbSpline
210
0.0
220
0.0
230
1.0
 70
     8
 71
     3
 72
    23
 73
    19
 74
     0
 42
0.00000001
 43
0.00000001
 12
1.0
 22
0.0
 32
0.0
 13
1.0
 23
0.0
 33
0.0
 40
0.0
 40
0.0
 40
0.0
 40
0.0
 40
0.0687422616054881
 40
0.1346351922242765
 40
0.1983241870671455
 40
0.2608250125604198
 40
0.3227135881590226
 40
0.3845545346076187
 40
0.4469128577247569
 40
0.5109576325148294
 40
0.5749307010013349
 40
0.636684537796091
 40
0.6974831152940574
 40
0.7571338075238531
 40
0.8169656636752591
 40
0.8768183516571935
 40
0.9376625803840022
 40
1.0
 40
1.0
 40
1.0
 40
1.0
 10
71.47887642617506
 20
139.9842980865551
 30
0.0
 10
71.43114170666612
 20
139.9855192827728
 30
0.0
 10
71.33765084694227
 20
139.9879110572602
 30
0.0
 10
71.200924865019
 20
140.0063883399898
 30
0.0
 10
71.07093524608413
 20
140.0371463225593
 30
0.0
 10
70.94770664756473
 20
140.0810138152892
 30
0.0
 10
70.83056180060962
 20
140.1363083590387
 30
0.0
 10
70.72077530366025
 20
140.2049200486169
 30
0.0
 10
70.61757538814437
 20
140.2854802038553
 30
0.0
 10
70.52250340372849
 20
140.3776161409051
 30
0.0
 10
70.43650479840241
 20
140.4776260972328
 30
0.0
 10
70.3606317900512
 20
140.5827761357264
 30
0.0
 10
70.29674146390114
 20
140.6921862291636
 30
0.0
 10
70.24438326001902
 20
140.8060689141043
 30
0.0
 10
70.20355144710092
 20
140.9239276458933
 30
0.0
 10
70.1750203544326
 20
141.0461224583531
 30
0.0
 10
70.15667673986668
 20
141.1721418268897
 30
0.0
 10
70.15473757131141
 20
141.2577047598366
 30
0.0
 10
70.15375623386737
 20
141.3010048173244
 30
0.0
  0
SPLINE
  5
F1
330
1F
100
AcDbEntity
  8
0
  6
Continuous
 62
     7
370
    15
100
AcDbSpline
210
0.0
220
0.0
230
1.0
 70
     8
 71
     3
 72
    23
 73
    19
 74
     0
 42
0.00000001
 43
0.00000001
 12
1.0
 22
0.0
 32
0.0
 13
1.0
 23
0.0
 33
0.0
 40
0.0
 40
0.0
 40
0.0
 40
0.0
 40
0.0624160261588188
 40
0.1233369785373325
 40
0.1832651398530973
 40
0.2431724430697103
 40
0.3028983539197498
 40
0.3637735975039122
 40
0.4256053049523831
 40
0.4896590425101834
 40
0.5537845767921161
 40
0.6162215328110738
 40
0.6778544713083441
 40
0.7395168974879391
 40
0.8020965355763728
 40
0.8658658412779712
 40
0.9315077951965118
 40
0.9999999999999999
 40
0.9999999999999999
 40
0.9999999999999999
 40
0.9999999999999999
 10
72.80119213130327
 20
141.3010048173244
 30
0.0
 10
72.80021079398537
 20
141.2577047596467
 30
0.0
 10
72.79827162567932
 20
141.1721418263245
 30
0.0
 10
72.77992800928827
 20
141.046122460536
 30
0.0
 10
72.75139692341101
 20
140.9239276378507
 30
0.0
 10
72.71056508523196
 20
140.8060689440981
 30
0.0
 10
72.65820697596843
 20
140.6921861166867
 30
0.0
 10
72.59431628843484
 20
140.5827765673978
 30
0.0
 10
72.51844467128313
 20
140.4776244341247
 30
0.0
 10
72.43244067452473
 20
140.3776225958723
 30
0.0
 10
72.33738879837334
 20
140.2854563810788
 30
0.0
 10
72.23427265005427
 20
140.2051281115255
 30
0.0
 10
72.12511861630335
 20
140.1363065871571
 30
0.0
 10
72.00847526302866
 20
140.0808701715423
 30
0.0
 10
71.88540777619693
 20
140.0371604712308
 30
0.0
 10
71.75565070809185
 20
140.0064604548004
 30
0.0
 10
71.61940563777863
 20
139.987898771024
 30
0.0
 10
71.52637841641243
 20
139.9855151977631
 30
0.0
 10
71.47887642617506
 20
139.9842980865551
 30
0.0
  0
SPLINE
  5
F2
330
1F
100
AcDbEntity
  8
0
  6
Continuous
 62
     7
370
    15
100
AcDbSpline
210
0.0
220
0.0
230
1.0
 70
     8
 71
     3
 72
    15
 73
    11
 74
     0
 42
0.00000001
 43
0.00000001
 12
1.0
 22
0.0
 32
0.0
 13
1.0
 23
0.0
 33
0.0
 40
0.0
 40
0.0
 40
0.0
 40
0.0
 40
0.1281572795931858
 40
0.2538343627967343
 40
0.3765056225222053
 40
0.4985336856679141
 40
0.6213677287324616
 40
0.744564744904363
 40
0.8706337982552933
 40
1.0
 40
1.0
 40
1.0
 40
1.0
 10
72.45063123386737
 20
142.2103597852731
 30
0.0
 10
72.47861318793232
 20
142.1781457994836
 30
0.0
 10
72.53403556817034
 20
142.1143412572684
 30
0.0
 10
72.60510128695971
 20
142.0108856443059
 30
0.0
 10
72.66632284711714
 20
141.9037455437143
 30
0.0
 10
72.71538580810383
 20
141.791498217043
 30
0.0
 10
72.75407083178905
 20
141.6751235458894
 30
0.0
 10
72.78153652804436
 20
141.5542215347307
 30
0.0
 10
72.79787346298475
 20
141.4290591875671
 30
0.0
 10
72.8000764299264
 20
141.3440553494901
 30
0.0
 10
72.80119213130327
 20
141.3010048173244
 30
0.0
  0
SPLINE
  5
F3
330
1F
100
AcDbEntity
  8
0
  6
Continuous
 62
     7
370
    15
100
AcDbSpline
210
0.0
220
0.0
230
1.0
 70
     8
 71
     3
 72
    15
 73
    11
 74
     0
 42
0.00000001
 43
0.00000001
 12
1.0
 22
0.0
 32
0.0
 13
1.0
 23
0.0
 33
0.0
 40
0.0
 40
0.0
 40
0.0
 40
0.0
 40
0.1317514273024062
 40
0.2583323505141564
 40
0.3821339760925452
 40
0.5038043916000862
 40
0.6246929865409311
 40
0.7468705897275792
 40
0.8715135042348189
 40
1.0
 40
1.0
 40
1.0
 40
1.0
 10
71.47887642617506
 20
142.631733983991
 30
0.0
 10
71.52686769901833
 20
142.6307120928522
 30
0.0
 10
71.62096685658803
 20
142.6287084140665
 30
0.0
 10
71.75877474246738
 20
142.6072934484139
 30
0.0
 10
71.89031987840369
 20
142.5745460840283
 30
0.0
 10
72.01610607056722
 20
142.5292745219539
 30
0.0
 10
72.13452236601997
 20
142.4685925714072
 30
0.0
 10
72.24729361012793
 20
142.3961832802817
 30
0.0
 10
72.35411061901284
 20
142.3104006867174
 30
0.0
 10
72.41813364827004
 20
142.2440426183427
 30
0.0
 10
72.45063123386737
 20
142.2103597852731
 30
0.0
  0
SPLINE
  5
F4
330
1F
100
AcDbEntity
  8
0
  6
Continuous
 62
     7
370
    15
100
AcDbSpline
210
0.0
220
0.0
230
1.0
 70
     8
 71
     3
 72
    15
 73
    11
 74
     0
 42
0.00000001
 43
0.00000001
 12
1.0
 22
0.0
 32
0.0
 13
1.0
 23
0.0
 33
0.0
 40
0.0
 40
0.0
 40
0.0
 40
0.0
 40
0.1284975211375114
 40
0.2527129855154524
 40
0.3748191325670475
 40
0.4964364263727305
 40
0.6179105567458524
 40
0.741287617309292
 40
0.868700400744609
 40
1.0
 40
1.0
 40
1.0
 40
1.0
 10
70.50431713130325
 20
142.2082564198885
 30
0.0
 10
70.53676572232929
 20
142.242231359142
 30
0.0
 10
70.60058158617916
 20
142.3090490553548
 30
0.0
 10
70.70793031390734
 20
142.3945815794417
 30
0.0
 10
70.82042413501782
 20
142.4684976533026
 30
0.0
 10
70.94014906115534
 20
142.5279738687552
 30
0.0
 10
71.06583191911112
 20
142.5748123864817
 30
0.0
 10
71.19805116163899
 20
142.6073779015965
 30
0.0
 10
71.33632667709851
 20
142.6286312565655
 30
0.0
 10
71.43088629819408
 20
142.6306894343709
 30
0.0
 10
71.47887642617506
 20
142.631733983991
 30
0.0
  0
SPLINE
  5
F5
330
1F
100
AcDbEntity
  8
0
  6
Continuous
 62
     7
370
    15
100
AcDbSpline
210
0.0
220
0.0
230
1.0
 70
     8
 71
     3
 72
    23
 73
    19
 74
     0
 42
0.00000001
 43
0.00000001
 12
1.0
 22
0.0
 32
0.0
 13
1.0
 23
0.0
 33
0.0
 40
0.0
 40
0.0
 40
0.0
 40
0.0
 40
0.0683846151037665
 40
0.1344755875434485
 40
0.1983910577839544
 40
0.2607534774484859
 40
0.3218292228076502
 40
0.3830372384795206
 40
0.444653123106426
 40
0.5073980112040009
 40
0.5698252379730252
 40
0.6307776406313139
 40
0.6909286865237168
 40
0.7509451326917367
 40
0.8110494767293261
 40
0.872330852546994
 40
0.935004093589406
 40
1.0
 40
1.0
 40
1.0
 40
1.0
 10
75.0896536697648
 20
141.2407083429654
 30
0.0
 10
75.09119327619396
 20
141.2070078787183
 30
0.0
 10
75.09422085014215
 20
141.1407372749686
 30
0.0
 10
75.10833599330859
 20
141.0437664918861
 30
0.0
 10
75.13058476708281
 20
140.9513931497225
 30
0.0
 10
75.16185382972132
 20
140.864310107749
 30
0.0
 10
75.1997206749762
 20
140.7813799802337
 30
0.0
 10
75.24610639176215
 20
140.7032179432651
 30
0.0
 10
75.30144594571465
 20
140.6301800132152
 30
0.0
 10
75.36317164509902
 20
140.5616128756221
 30
0.0
 10
75.43187874043461
 20
140.5005521144543
 30
0.0
 10
75.50416148765582
 20
140.4459003382201
 30
0.0
 10
75.58105505264501
 20
140.4000947414907
 30
0.0
 10
75.66195313613896
 20
140.3629148517373
 30
0.0
 10
75.74672492128313
 20
140.3338085356782
 30
0.0
 10
75.83539711639888
 20
140.3139407149952
 30
0.0
 10
75.92779523275362
 20
140.3006336081204
 30
0.0
 10
75.99078096678639
 20
140.2991539429199
 30
0.0
 10
76.02284677873917
 20
140.2984006506577
 30
0.0
  0
LINE
  5
F6
330
1F
100
AcDbEntity
  8
0
  6
Continuous
 62
     7
370
    15
100
AcDbLine
 10
77.3781149604
 20
141.2407064774
 30
0.0
 11
75.0896542289
 21
141.2407064774
 31
0.0
  0
SPLINE
  5
F7
330
1F
100
AcDbEntity
  8
0
  6
Continuous
 62
     7
370
    15
100
AcDbSpline
210
0.0
220
0.0
230
1.0
 70
     8
 71
     3
 72
    15
 73
    11
 74
     0
 42
0.00000001
 43
0.00000001
 12
1.0
 22
0.0
 32
0.0
 13
1.0
 23
0.0
 33
0.0
 40
0.0
 40
0.0
 40
0.0
 40
0.0
 40
0.1185218400132601
 40
0.2362547631617455
 40
0.3561744339909274
 40
0.4772496548985494
 40
0.6015398708217022
 40
0.7296183821680345
 40
0.8621582661414354
 40
0.9999999999999999
 40
0.9999999999999999
 40
0.9999999999999999
 40
0.9999999999999999
 10
77.09976985566223
 20
142.1283285352731
 30
0.0
 10
77.12189679397473
 20
142.0981249538868
 30
0.0
 10
77.1660033870712
 20
142.037918835198
 30
0.0
 10
77.22125048710635
 20
141.9397476780973
 30
0.0
 10
77.26920788209002
 20
141.8370370837471
 30
0.0
 10
77.30754084310479
 20
141.7281267866602
 30
0.0
 10
77.33858034430133
 20
141.6143072064872
 30
0.0
 10
77.36103716304152
 20
141.4947646617729
 30
0.0
 10
77.37420678162336
 20
141.369534750412
 30
0.0
 10
77.3767954789718
 20
141.2842081949353
 30
0.0
 10
77.37811520822633
 20
141.2407083429654
 30
0.0
  0
SPLINE
  5
F8
330
1F
100
AcDbEntity
  8
0
  6
Continuous
 62
     7
370
    15
100
AcDbSpline
210
0.0
220
0.0
230
1.0
 70
     8
 71
     3
 72
    15
 73
    11
 74
     0
 42
0.00000001
 43
0.00000001
 12
1.0
 22
0.0
 32
0.0
 13
1.0
 23
0.0
 33
0.0
 40
0.0
 40
0.0
 40
0.0
 40
0.0
 40
0.1320402344259819
 40
0.2590328407793685
 40
0.3818798239250146
 40
0.5022584437149833
 40
0.6227521895274767
 40
0.7447426318589991
 40
0.870108927341815
 40
1.0
 40
1.0
 40
1.0
 40
1.0
 10
76.06982193899557
 20
142.631733983991
 30
0.0
 10
76.12226954429926
 20
142.6303799350985
 30
0.0
 10
76.22515979023791
 20
142.627723599833
 30
0.0
 10
76.37519191127471
 20
142.603097266424
 30
0.0
 10
76.5171526278153
 20
142.5640447118605
 30
0.0
 10
76.65098513212412
 20
142.50889092136
 30
0.0
 10
76.77670299287696
 20
142.4377313695696
 30
0.0
 10
76.89348904245165
 20
142.3495895280886
 30
0.0
 10
77.0033405550004
 20
142.2471714408636
 30
0.0
 10
77.0672491338526
 20
142.1684082314363
 30
0.0
 10
77.09976985566223
 20
142.1283285352731
 30
0.0
  0
SPLINE
  5
F9
330
1F
100
AcDbEntity
  8
0
  6
Continuous
 62
     7
370
    15
100
AcDbSpline
210
0.0
220
0.0
230
1.0
 70
     8
 71
     3
 72
    15
 73
    11
 74
     0
 42
0.00000001
 43
0.00000001
 12
1.0
 22
0.0
 32
0.0
 13
1.0
 23
0.0
 33
0.0
 40
0.0
 40
0.0
 40
0.0
 40
0.0
 40
0.12883525448755
 40
0.253589334986479
 40
0.3746432573141678
 40
0.4953400422377945
 40
0.6163247746357922
 40
0.7397593354405171
 40
0.8668423203805465
 40
1.0
 40
1.0
 40
1.0
 40
1.0
 10
75.07002225950839
 20
142.1549711634782
 30
0.0
 10
75.10172994228422
 20
142.1928400335663
 30
0.0
 10
75.16414088889249
 20
142.2673781840167
 30
0.0
 10
75.26969724424634
 20
142.3653165097984
 30
0.0
 10
75.38399744058874
 20
142.4473602849754
 30
0.0
 10
75.50560906668889
 20
142.5153674211137
 30
0.0
 10
75.63594554074949
 20
142.5670410681064
 30
0.0
 10
75.77325483178707
 20
142.6055486503387
 30
0.0
 10
75.9191004180137
 20
142.627126661372
 30
0.0
 10
76.01880563885189
 20
142.630174494994
 30
0.0
 10
76.06982193899557
 20
142.631733983991
 30
0.0
  0
SPLINE
  5
FA
330
1F
100
AcDbEntity
  8
0
  6
Continuous
 62
     7
370
    15
100
AcDbSpline
210
0.0
220
0.0
230
1.0
 70
     8
 71
     3
 72
    15
 73
    11
 74
     0
 42
0.00000001
 43
0.00000001
 12
1.0
 22
0.0
 32
0.0
 13
1.0
 23
0.0
 33
0.0
 40
0.0
 40
0.0
 40
0.0
 40
0.0
 40
0.1280448079611128
 40
0.2537679000244909
 40
0.3774284265812972
 40
0.5005508414825247
 40
0.6232958832424783
 40
0.7465783319335089
 40
0.8723475406047165
 40
1.0
 40
1.0
 40
1.0
 40
1.0
 10
74.77555110566225
 20
141.3010048173244
 30
0.0
 10
74.77661024699283
 20
141.3402996477419
 30
0.0
 10
74.77870932524189
 20
141.4181768124288
 30
0.0
 10
74.79194011263557
 20
141.5334423569591
 30
0.0
 10
74.81538840570357
 20
141.6454708094877
 30
0.0
 10
74.84756472965272
 20
141.7543552574565
 30
0.0
 10
74.88911597583595
 20
141.8599133914406
 30
0.0
 10
74.93994819505218
 20
141.9622094550638
 30
0.0
 10
75.00014057284096
 20
142.0611345949242
 30
0.0
 10
75.04661324659742
 20
142.123537728632
 30
0.0
 10
75.07002225950839
 20
142.1549711634782
 30
0.0
  0
SPLINE
  5
FB
330
1F
100
AcDbEntity
  8
0
  6
Continuous
 62
     7
370
    15
100
AcDbSpline
210
0.0
220
0.0
230
1.0
 70
     8
 71
     3
 72
    23
 73
    19
 74
     0
 42
0.00000001
 43
0.00000001
 12
1.0
 22
0.0
 32
0.0
 13
1.0
 23
0.0
 33
0.0
 40
0.0
 40
0.0
 40
0.0
 40
0.0
 40
0.071578657689142
 40
0.1396292246928482
 40
0.2047966973966643
 40
0.2681349633966806
 40
0.3298137469867285
 40
0.3913013977745595
 40
0.4534335150970536
 40
0.5165516903197663
 40
0.5796312707049216
 40
0.6411189214927493
 40
0.7012940466987742
 40
0.7608103356761305
 40
0.8199317217781441
 40
0.8789195754993785
 40
0.9389828222504449
 40
1.0
 40
1.0
 40
1.0
 40
1.0
 10
76.06210959925198
 20
139.9842980865551
 30
0.0
 10
76.01296762171654
 20
139.9854452618847
 30
0.0
 10
75.91710586005924
 20
139.987683068614
 30
0.0
 10
75.77756611294636
 20
140.0069755330485
 30
0.0
 10
75.64618669454885
 20
140.0384478917422
 30
0.0
 10
75.52297499119523
 20
140.0824134332335
 30
0.0
 10
75.40823273861768
 20
140.1398407573238
 30
0.0
 10
75.30173188380576
 20
140.2098002391275
 30
0.0
 10
75.2029123579368
 20
140.2919324938161
 30
0.0
 10
75.11488814875165
 20
140.386948937303
 30
0.0
 10
75.0356442660412
 20
140.4886308945984
 30
0.0
 10
74.96571844606551
 20
140.5945867790844
 30
0.0
 10
74.90726101501609
 20
140.7045500035583
 30
0.0
 10
74.85970840482034
 20
140.8178205276018
 30
0.0
 10
74.82130353985055
 20
140.933684421145
 30
0.0
 10
74.79453683608142
 20
141.0531958887142
 30
0.0
 10
74.77910708809937
 20
141.1760314729544
 30
0.0
 10
74.77674264256201
 20
141.2591288086721
 30
0.0
 10
74.77555110566225
 20
141.3010048173244
 30
0.0
  0
SPLINE
  5
FC
330
1F
100
AcDbEntity
  8
0
  6
Continuous
 62
     7
370
    15
100
AcDbSpline
210
0.0
220
0.0
230
1.0
 70
     8
 71
     3
 72
    19
 73
    15
 74
     0
 42
0.00000001
 43
0.00000001
 12
1.0
 22
0.0
 32
0.0
 13
1.0
 23
0.0
 33
0.0
 40
0.0
 40
0.0
 40
0.0
 40
0.0
 40
0.0933698567361912
 40
0.181660766070998
 40
0.2658742270426198
 40
0.3463547840343038
 40
0.4245998617178932
 40
0.5019031838373746
 40
0.5799920909873456
 40
0.6584434305294294
 40
0.7386722364878342
 40
0.8218941484362445
 40
0.908800792046616
 40
1.0
 40
1.0
 40
1.0
 40
1.0
 10
77.24349982361095
 20
140.690327733991
 30
0.0
 10
77.22126322837099
 20
140.6508844027157
 30
0.0
 10
77.17799961988631
 20
140.574143299898
 30
0.0
 10
77.10359887199553
 20
140.468711439426
 30
0.0
 10
77.02560679941736
 20
140.3738637235872
 30
0.0
 10
76.94050283141377
 20
140.2921340693033
 30
0.0
 10
76.85083315245976
 20
140.2208826843291
 30
0.0
 10
76.75610049767408
 20
140.1585448596101
 30
0.0
 10
76.65581167993874
 20
140.1054263392643
 30
0.0
 10
76.54996195516048
 20
140.0606738113916
 30
0.0
 10
76.43766240401898
 20
140.0262643172836
 30
0.0
 10
76.31864088760894
 20
140.0019600963626
 30
0.0
 10
76.19266939223014
 20
139.9869368277122
 30
0.0
 10
76.1063232123624
 20
139.9851916869351
 30
0.0
 10
76.06210959925198
 20
139.9842980865551
 30
0.0
  0
LINE
  5
FD
330
1F
100
AcDbEntity
  8
0
  6
Continuous
 62
     7
370
    15
100
AcDbLine
 10
76.9644531377
 20
140.8368626573
 30
0.0
 11
77.2434997328
 21
140.6903246381
 31
0.0
  0
SPLINE
  5
FE
330
1F
100
AcDbEntity
  8
0
  6
Continuous
 62
     7
370
    15
100
AcDbSpline
210
0.0
220
0.0
230
1.0
 70
     8
 71
     3
 72
    19
 73
    15
 74
     0
 42
0.00000001
 43
0.00000001
 12
1.0
 22
0.0
 32
0.0
 13
1.0
 23
0.0
 33
0.0
 40
0.0
 40
0.0
 40
0.0
 40
0.0
 40
0.0825922633314394
 40
0.1638788940984971
 40
0.2456587396295056
 40
0.3277256953541238
 40
0.4086099609103239
 40
0.485749085953937
 40
0.5591690561972847
 40
0.6302684758575511
 40
0.7053060284320753
 40
0.7920649660966087
 40
0.8897964374100916
 40
1.0
 40
1.0
 40
1.0
 40
1.0
 10
76.02284677873917
 20
140.2984006506577
 30
0.0
 10
76.05419792634319
 20
140.2990087073176
 30
0.0
 10
76.11640461727073
 20
140.3002152083742
 30
0.0
 10
76.2090454746138
 20
140.3119471192851
 30
0.0
 10
76.30018500201334
 20
140.3309173949063
 30
0.0
 10
76.38944598528055
 20
140.3568073849899
 30
0.0
 10
76.47501683119725
 20
140.3883842370967
 30
0.0
 10
76.55426238125848
 20
140.4264870947457
 30
0.0
 10
76.62714259688462
 20
140.4686368414887
 30
0.0
 10
76.6952595634709
 20
140.5168465165371
 30
0.0
 10
76.76133055682295
 20
140.5758547035401
 30
0.0
 10
76.82687304323768
 20
140.6494904245286
 30
0.0
 10
76.89714969660096
 20
140.7365779523123
 30
0.0
 10
76.94113928934472
 20
140.8021236182902
 30
0.0
 10
76.96445334925198
 20
140.8368621891192
 30
0.0
  0
SPLINE
  5
FF
330
1F
100
AcDbEntity
  8
0
  6
Continuous
 62
     7
370
    15
100
AcDbSpline
210
0.0
220
0.0
230
1.0
 70
     8
 71
     3
 72
    15
 73
    11
 74
     0
 42
0.00000001
 43
0.00000001
 12
1.0
 22
0.0
 32
0.0
 13
1.0
 23
0.0
 33
0.0
 40
0.0
 40
0.0
 40
0.0
 40
0.0
 40
0.1277566033101295
 40
0.2494143553365239
 40
0.3727964764554024
 40
0.500111332515867
 40
0.6286099407651193
 40
0.7506433738258156
 40
0.8737683791425223
 40
0.9999999999999999
 40
0.9999999999999999
 40
0.9999999999999999
 40
0.9999999999999999
 10
79.33003828514943
 20
139.9842980865551
 30
0.0
 10
79.31051237949754
 20
139.9853416837307
 30
0.0
 10
79.2723926968796
 20
139.9873790587861
 30
0.0
 10
79.21760670264945
 20
140.0045418650644
 30
0.0
 10
79.1671997340707
 20
140.0313653253082
 30
0.0
 10
79.12241202233375
 20
140.0686322347908
 30
0.0
 10
79.08587355074559
 20
140.1136323781865
 30
0.0
 10
79.05824816789261
 20
140.1638341746184
 30
0.0
 10
79.04165801893967
 20
140.2186156120333
 30
0.0
 10
79.0394761462728
 20
140.2566902548736
 30
0.0
 10
79.03837161848276
 20
140.2759647532218
 30
0.0
  0
SPLINE
  5
100
330
1F
100
AcDbEntity
  8
0
  6
Continuous
 62
     7
370
    15
100
AcDbSpline
210
0.0
220
0.0
230
1.0
 70
     8
 71
     3
 72
    15
 73
    11
 74
     0
 42
0.00000001
 43
0.00000001
 12
1.0
 22
0.0
 32
0.0
 13
1.0
 23
0.0
 33
0.0
 40
0.0
 40
0.0
 40
0.0
 40
0.0
 40
0.1261777183169971
 40
0.2488206074857829
 40
0.371539969235143
 40
0.4999837069108743
 40
0.6272441978753666
 40
0.7492255210762667
 40
0.8722979504176521
 40
1.0
 40
1.0
 40
1.0
 40
1.0
 10
79.62170495181608
 20
140.2759647532218
 30
0.0
 10
79.62050935107061
 20
140.2567214234593
 30
0.0
 10
79.61815164395901
 20
140.2187738597736
 30
0.0
 10
79.60288903583003
 20
140.1634923971497
 30
0.0
 10
79.57399098559999
 20
140.1138654926797
 30
0.0
 10
79.53775599267766
 20
140.0685633545513
 30
0.0
 10
79.49295955911946
 20
140.0316224839431
 30
0.0
 10
79.44285771269674
 20
140.0041991392108
 30
0.0
 10
79.38786645453966
 20
139.9875071593014
 30
0.0
 10
79.34955013119144
 20
139.9853808621993
 30
0.0
 10
79.33003828514943
 20
139.9842980865551
 30
0.0
  0
SPLINE
  5
101
330
1F
100
AcDbEntity
  8
0
  6
Continuous
 62
     7
370
    15
100
AcDbSpline
210
0.0
220
0.0
230
1.0
 70
     8
 71
     3
 72
    15
 73
    11
 74
     0
 42
0.00000001
 43
0.00000001
 12
1.0
 22
0.0
 32
0.0
 13
1.0
 23
0.0
 33
0.0
 40
0.0
 40
0.0
 40
0.0
 40
0.0
 40
0.1275189266999404
 40
0.2499859477488088
 40
0.3717923515057427
 40
0.4988703527764654
 40
0.6259483540471833
 40
0.7484917380160437
 40
0.8709587590648986
 40
1.0
 40
1.0
 40
1.0
 40
1.0
 10
79.33003828514943
 20
140.5676314198885
 30
0.0
 10
79.3495284973224
 20
140.566473253202
 30
0.0
 10
79.38773677971604
 20
140.5642028028128
 30
0.0
 10
79.44297590803197
 20
140.5486261290528
 30
0.0
 10
79.49297056774547
 20
140.5209674685812
 30
0.0
 10
79.53750281253218
 20
140.4841046902193
 30
0.0
 10
79.57420928905643
 20
140.4394090270889
 30
0.0
 10
79.60285364118423
 20
140.3898131183527
 30
0.0
 10
79.6182946263962
 20
140.3341115257737
 30
0.0
 10
79.62054853820682
 20
140.2956818508107
 30
0.0
 10
79.62170495181608
 20
140.2759647532218
 30
0.0
  0
SPLINE
  5
102
330
1F
100
AcDbEntity
  8
0
  6
Continuous
 62
     7
370
    15
100
AcDbSpline
210
0.0
220
0.0
230
1.0
 70
     8
 71
     3
 72
    15
 73
    11
 74
     0
 42
0.00000001
 43
0.00000001
 12
1.0
 22
0.0
 32
0.0
 13
1.0
 23
0.0
 33
0.0
 40
0.0
 40
0.0
 40
0.0
 40
0.0
 40
0.129096958167244
 40
0.252045967259993
 40
0.3739049644020061
 40
0.5010378352202097
 40
0.6281707060384182
 40
0.751376463409196
 40
0.8724260133704579
 40
1.0
 40
1.0
 40
1.0
 40
1.0
 10
79.03837161848276
 20
140.2759647532218
 30
0.0
 10
79.03943371773822
 20
140.2957141328696
 30
0.0
 10
79.04150733618728
 20
140.3342723728683
 30
0.0
 10
79.05828299643908
 20
140.3894714803456
 30
0.0
 10
79.08565920834384
 20
140.4396399195957
 30
0.0
 10
79.122664603336
 20
140.4840364997193
 30
0.0
 10
79.1671888992245
 20
140.5212238023851
 30
0.0
 10
79.21748510440248
 20
140.5482885955247
 30
0.0
 10
79.2725246447065
 20
140.5643290077104
 30
0.0
 10
79.31053458312057
 20
140.5665115244584
 30
0.0
 10
79.33003828514943
 20
140.5676314198885
 30
0.0
  0
SPLINE
  5
103
330
1F
100
AcDbEntity
  8
0
  6
Continuous
 62
     7
370
    15
100
AcDbSpline
210
0.0
220
0.0
230
1.0
 70
     8
 71
     3
 72
    23
 73
    19
 74
     0
 42
0.00000001
 43
0.00000001
 12
1.0
 22
0.0
 32
0.0
 13
1.0
 23
0.0
 33
0.0
 40
0.0
 40
0.0
 40
0.0
 40
0.0
 40
0.0683846151037665
 40
0.1344755875434485
 40
0.1983910577839544
 40
0.2607534774484859
 40
0.3218292228076502
 40
0.3830372384795206
 40
0.444653123106426
 40
0.5073980112040009
 40
0.5698252379730252
 40
0.6307776406313139
 40
0.6909286865237168
 40
0.7509451326917367
 40
0.8110494767293261
 40
0.872330852546994
 40
0.935004093589406
 40
1.0
 40
1.0
 40
1.0
 40
1.0
 10
83.48067931079045
 20
141.2407083429654
 30
0.0
 10
83.4822189172196
 20
141.2070078787183
 30
0.0
 10
83.48524649116781
 20
141.1407372749686
 30
0.0
 10
83.49936163433424
 20
141.0437664918861
 30
0.0
 10
83.52161040810847
 20
140.9513931497225
 30
0.0
 10
83.55287947074697
 20
140.864310107749
 30
0.0
 10
83.59074631600186
 20
140.7813799802337
 30
0.0
 10
83.6371320327878
 20
140.7032179432651
 30
0.0
 10
83.69247158674028
 20
140.6301800132152
 30
0.0
 10
83.75419728612468
 20
140.5616128756221
 30
0.0
 10
83.82290438146026
 20
140.5005521144543
 30
0.0
 10
83.89518712868147
 20
140.4459003382201
 30
0.0
 10
83.97208069367065
 20
140.4000947414907
 30
0.0
 10
84.05297877716461
 20
140.3629148517373
 30
0.0
 10
84.13775056230878
 20
140.3338085356782
 30
0.0
 10
84.22642275742452
 20
140.3139407149952
 30
0.0
 10
84.31882087377927
 20
140.3006336081204
 30
0.0
 10
84.38180660781205
 20
140.2991539429199
 30
0.0
 10
84.4138724197648
 20
140.2984006506577
 30
0.0
  0
LINE
  5
104
330
1F
100
AcDbEntity
  8
0
  6
Continuous
 62
     7
370
    15
100
AcDbLine
 10
85.7691413679
 20
141.2407064774
 30
0.0
 11
83.4806787737
 21
141.2407064774
 31
0.0
  0
SPLINE
  5
105
330
1F
100
AcDbEntity
  8
0
  6
Continuous
 62
     7
370
    15
100
AcDbSpline
210
0.0
220
0.0
230
1.0
 70
     8
 71
     3
 72
    15
 73
    11
 74
     0
 42
0.00000001
 43
0.00000001
 12
1.0
 22
0.0
 32
0.0
 13
1.0
 23
0.0
 33
0.0
 40
0.0
 40
0.0
 40
0.0
 40
0.0
 40
0.11852184001326
 40
0.2362547631617454
 40
0.3561744339909274
 40
0.4772496548985506
 40
0.6015398708217023
 40
0.7296183821680347
 40
0.8621582661414354
 40
0.9999999999999999
 40
0.9999999999999999
 40
0.9999999999999999
 40
0.9999999999999999
 10
85.4907954966879
 20
142.1283285352731
 30
0.0
 10
85.51292243500038
 20
142.0981249538868
 30
0.0
 10
85.55702902809685
 20
142.037918835198
 30
0.0
 10
85.61227612813201
 20
141.9397476780973
 30
0.0
 10
85.66023352311566
 20
141.8370370837471
 30
0.0
 10
85.69856648413045
 20
141.7281267866602
 30
0.0
 10
85.72960598532698
 20
141.6143072064872
 30
0.0
 10
85.75206280406717
 20
141.4947646617729
 30
0.0
 10
85.76523242264902
 20
141.369534750412
 30
0.0
 10
85.76782111999745
 20
141.2842081949354
 30
0.0
 10
85.769140849252
 20
141.2407083429654
 30
0.0
  0
SPLINE
  5
106
330
1F
100
AcDbEntity
  8
0
  6
Continuous
 62
     7
370
    15
100
AcDbSpline
210
0.0
220
0.0
230
1.0
 70
     8
 71
     3
 72
    15
 73
    11
 74
     0
 42
0.00000001
 43
0.00000001
 12
1.0
 22
0.0
 32
0.0
 13
1.0
 23
0.0
 33
0.0
 40
0.0
 40
0.0
 40
0.0
 40
0.0
 40
0.1320402344259818
 40
0.2590328407793684
 40
0.3818798239250144
 40
0.502258443714983
 40
0.6227521895274789
 40
0.7447426318590012
 40
0.870108927341815
 40
1.0
 40
1.0
 40
1.0
 40
1.0
 10
84.46084758002122
 20
142.631733983991
 30
0.0
 10
84.5132951853249
 20
142.6303799350985
 30
0.0
 10
84.61618543126356
 20
142.6277235998329
 30
0.0
 10
84.76621755230038
 20
142.603097266424
 30
0.0
 10
84.90817826884096
 20
142.5640447118605
 30
0.0
 10
85.04201077314978
 20
142.50889092136
 30
0.0
 10
85.1677286339026
 20
142.4377313695696
 30
0.0
 10
85.2845146834773
 20
142.3495895280886
 30
0.0
 10
85.39436619602606
 20
142.2471714408636
 30
0.0
 10
85.45827477487825
 20
142.1684082314363
 30
0.0
 10
85.4907954966879
 20
142.1283285352731
 30
0.0
  0
SPLINE
  5
107
330
1F
100
AcDbEntity
  8
0
  6
Continuous
 62
     7
370
    15
100
AcDbSpline
210
0.0
220
0.0
230
1.0
 70
     8
 71
     3
 72
    15
 73
    11
 74
     0
 42
0.00000001
 43
0.00000001
 12
1.0
 22
0.0
 32
0.0
 13
1.0
 23
0.0
 33
0.0
 40
0.0
 40
0.0
 40
0.0
 40
0.0
 40
0.12883525448755
 40
0.253589334986479
 40
0.3746432573141678
 40
0.4953400422377945
 40
0.6163247746357922
 40
0.7397593354405171
 40
0.8668423203805465
 40
1.0
 40
1.0
 40
1.0
 40
1.0
 10
83.46104790053404
 20
142.1549711634782
 30
0.0
 10
83.49275558330987
 20
142.1928400335663
 30
0.0
 10
83.55516652991815
 20
142.2673781840167
 30
0.0
 10
83.66072288527201
 20
142.3653165097984
 30
0.0
 10
83.77502308161439
 20
142.4473602849754
 30
0.0
 10
83.89663470771455
 20
142.5153674211137
 30
0.0
 10
84.02697118177512
 20
142.5670410681064
 30
0.0
 10
84.16428047281272
 20
142.6055486503387
 30
0.0
 10
84.31012605903935
 20
142.627126661372
 30
0.0
 10
84.40983127987752
 20
142.630174494994
 30
0.0
 10
84.46084758002122
 20
142.631733983991
 30
0.0
  0
SPLINE
  5
108
330
1F
100
AcDbEntity
  8
0
  6
Continuous
 62
     7
370
    15
100
AcDbSpline
210
0.0
220
0.0
230
1.0
 70
     8
 71
     3
 72
    15
 73
    11
 74
     0
 42
0.00000001
 43
0.00000001
 12
1.0
 22
0.0
 32
0.0
 13
1.0
 23
0.0
 33
0.0
 40
0.0
 40
0.0
 40
0.0
 40
0.0
 40
0.1280448079611128
 40
0.2537679000244909
 40
0.3774284265812972
 40
0.5005508414825247
 40
0.6232958832424783
 40
0.7465783319335089
 40
0.8723475406047165
 40
1.0
 40
1.0
 40
1.0
 40
1.0
 10
83.16657674668788
 20
141.3010048173244
 30
0.0
 10
83.16763588801848
 20
141.3402996477419
 30
0.0
 10
83.16973496626753
 20
141.4181768124288
 30
0.0
 10
83.18296575366121
 20
141.5334423569591
 30
0.0
 10
83.20641404672922
 20
141.6454708094877
 30
0.0
 10
83.23859037067837
 20
141.7543552574565
 30
0.0
 10
83.28014161686158
 20
141.8599133914406
 30
0.0
 10
83.33097383607783
 20
141.9622094550638
 30
0.0
 10
83.39116621386661
 20
142.0611345949242
 30
0.0
 10
83.43763888762307
 20
142.123537728632
 30
0.0
 10
83.46104790053404
 20
142.1549711634782
 30
0.0
  0
SPLINE
  5
109
330
1F
100
AcDbEntity
  8
0
  6
Continuous
 62
     7
370
    15
100
AcDbSpline
210
0.0
220
0.0
230
1.0
 70
     8
 71
     3
 72
    23
 73
    19
 74
     0
 42
0.00000001
 43
0.00000001
 12
1.0
 22
0.0
 32
0.0
 13
1.0
 23
0.0
 33
0.0
 40
0.0
 40
0.0
 40
0.0
 40
0.0
 40
0.071578657689142
 40
0.1396292246928482
 40
0.2047966973966643
 40
0.2681349633966806
 40
0.3298137469867285
 40
0.3913013977745595
 40
0.4534335150970536
 40
0.5165516903197663
 40
0.5796312707049216
 40
0.6411189214927493
 40
0.7012940466987742
 40
0.7608103356761305
 40
0.8199317217781441
 40
0.8789195754993785
 40
0.9389828222504449
 40
1.0
 40
1.0
 40
1.0
 40
1.0
 10
84.45313524027763
 20
139.9842980865551
 30
0.0
 10
84.40399326274219
 20
139.9854452618847
 30
0.0
 10
84.30813150108487
 20
139.987683068614
 30
0.0
 10
84.16859175397201
 20
140.0069755330485
 30
0.0
 10
84.0372123355745
 20
140.0384478917422
 30
0.0
 10
83.91400063222088
 20
140.0824134332335
 30
0.0
 10
83.79925837964335
 20
140.1398407573238
 30
0.0
 10
83.6927575248314
 20
140.2098002391275
 30
0.0
 10
83.59393799896245
 20
140.2919324938161
 30
0.0
 10
83.50591378977728
 20
140.386948937303
 30
0.0
 10
83.42666990706687
 20
140.4886308945984
 30
0.0
 10
83.35674408709114
 20
140.5945867790844
 30
0.0
 10
83.29828665604174
 20
140.7045500035583
 30
0.0
 10
83.25073404584599
 20
140.8178205276018
 30
0.0
 10
83.21232918087621
 20
140.933684421145
 30
0.0
 10
83.18556247710707
 20
141.0531958887142
 30
0.0
 10
83.17013272912502
 20
141.1760314729544
 30
0.0
 10
83.16776828358766
 20
141.2591288086721
 30
0.0
 10
83.16657674668788
 20
141.3010048173244
 30
0.0
  0
SPLINE
  5
10A
330
1F
100
AcDbEntity
  8
0
  6
Continuous
 62
     7
370
    15
100
AcDbSpline
210
0.0
220
0.0
230
1.0
 70
     8
 71
     3
 72
    19
 73
    15
 74
     0
 42
0.00000001
 43
0.00000001
 12
1.0
 22
0.0
 32
0.0
 13
1.0
 23
0.0
 33
0.0
 40
0.0
 40
0.0
 40
0.0
 40
0.0
 40
0.0933698567361912
 40
0.181660766070998
 40
0.2658742270426198
 40
0.3463547840343038
 40
0.4245998617178932
 40
0.5019031838373746
 40
0.5799920909873456
 40
0.6584434305294294
 40
0.7386722364878342
 40
0.8218941484362445
 40
0.908800792046616
 40
1.0
 40
1.0
 40
1.0
 40
1.0
 10
85.63452546463661
 20
140.690327733991
 30
0.0
 10
85.61228886939664
 20
140.6508844027157
 30
0.0
 10
85.56902526091197
 20
140.574143299898
 30
0.0
 10
85.49462451302118
 20
140.468711439426
 30
0.0
 10
85.41663244044301
 20
140.3738637235872
 30
0.0
 10
85.33152847243943
 20
140.2921340693033
 30
0.0
 10
85.2418587934854
 20
140.2208826843291
 30
0.0
 10
85.14712613869973
 20
140.1585448596101
 30
0.0
 10
85.04683732096439
 20
140.1054263392643
 30
0.0
 10
84.94098759618613
 20
140.0606738113916
 30
0.0
 10
84.82868804504461
 20
140.0262643172836
 30
0.0
 10
84.70966652863459
 20
140.0019600963626
 30
0.0
 10
84.58369503325581
 20
139.9869368277122
 30
0.0
 10
84.49734885338805
 20
139.9851916869351
 30
0.0
 10
84.45313524027763
 20
139.9842980865551
 30
0.0
  0
LINE
  5
10B
330
1F
100
AcDbEntity
  8
0
  6
Continuous
 62
     7
370
    15
100
AcDbLine
 10
85.3554795452
 20
140.8368626573
 30
0.0
 11
85.6345261403
 21
140.6903246381
 31
0.0
  0
SPLINE
  5
10C
330
1F
100
AcDbEntity
  8
0
  6
Continuous
 62
     7
370
    15
100
AcDbSpline
210
0.0
220
0.0
230
1.0
 70
     8
 71
     3
 72
    19
 73
    15
 74
     0
 42
0.00000001
 43
0.00000001
 12
1.0
 22
0.0
 32
0.0
 13
1.0
 23
0.0
 33
0.0
 40
0.0
 40
0.0
 40
0.0
 40
0.0
 40
0.0825922633314363
 40
0.163878894098497
 40
0.2456587396295056
 40
0.3277256953541238
 40
0.4086099609103238
 40
0.4857490859539343
 40
0.5591690561972846
 40
0.630268475857551
 40
0.7053060284320752
 40
0.7920649660966086
 40
0.8897964374100916
 40
1.0
 40
1.0
 40
1.0
 40
1.0
 10
84.4138724197648
 20
140.2984006506577
 30
0.0
 10
84.44522356736881
 20
140.2990087073176
 30
0.0
 10
84.50743025829637
 20
140.3002152083742
 30
0.0
 10
84.60007111563947
 20
140.3119471192852
 30
0.0
 10
84.69121064303897
 20
140.3309173949062
 30
0.0
 10
84.78047162630621
 20
140.3568073849899
 30
0.0
 10
84.86604247222292
 20
140.3883842370967
 30
0.0
 10
84.94528802228415
 20
140.4264870947457
 30
0.0
 10
85.01816823791026
 20
140.4686368414887
 30
0.0
 10
85.08628520449656
 20
140.5168465165371
 30
0.0
 10
85.15235619784859
 20
140.5758547035401
 30
0.0
 10
85.21789868426333
 20
140.6494904245286
 30
0.0
 10
85.28817533762661
 20
140.7365779523123
 30
0.0
 10
85.33216493037037
 20
140.8021236182902
 30
0.0
 10
85.35547899027762
 20
140.8368621891192
 30
0.0
  0
LINE
  5
10D
330
1F
100
AcDbEntity
  8
0
  6
Continuous
 62
     7
370
    15
100
AcDbLine
 10
83.3226500966
 20
103.6300824919
 30
0.0
 11
85.9207271554
 21
105.1300818064
 31
0.0
  0
LINE
  5
10E
330
1F
100
AcDbEntity
  8
0
  6
Continuous
 62
     7
370
    15
100
AcDbLine
 10
85.9207271554
 20
105.1300818064
 30
0.0
 11
82.9207266637
 21
110.326235924
 31
0.0
  0
LINE
  5
10F
330
1F
100
AcDbEntity
  8
0
  6
Continuous
 62
     7
370
    15
100
AcDbLine
 10
82.9207266637
 20
110.326235924
 30
0.0
 11
80.3226496049
 21
108.8262366095
 31
0.0
  0
LINE
  5
110
330
1F
100
AcDbEntity
  8
0
  6
Continuous
 62
     7
370
    15
100
AcDbLine
 10
80.3226496049
 20
108.8262366095
 30
0.0
 11
83.3226500966
 21
103.6300824919
 31
0.0
  0
LINE
  5
111
330
1F
100
AcDbEntity
  8
0
  6
Continuous
 62
     7
370
    15
100
AcDbLine
 10
97.1790554889
 20
94.1904054918
 30
0.0
 11
94.5809821554
 21
95.6904048064
 31
0.0
  0
LINE
  5
112
330
1F
100
AcDbEntity
  8
0
  6
Continuous
 62
     7
370
    15
100
AcDbLine
 10
94.5809821554
 20
95.6904048064
 30
0.0
 11
91.580979801
 21
90.4942544141
 31
0.0
  0
LINE
  5
113
330
1F
100
AcDbEntity
  8
0
  6
Continuous
 62
     7
370
    15
100
AcDbLine
 10
91.580979801
 20
90.4942544141
 30
0.0
 11
94.1790568598
 21
88.9942513742
 31
0.0
  0
LINE
  5
114
330
1F
100
AcDbEntity
  8
0
  6
Continuous
 62
     7
370
    15
100
AcDbLine
 10
94.1790568598
 20
88.9942513742
 30
0.0
 11
97.1790554889
 21
94.1904054918
 31
0.0
  0
LINE
  5
115
330
1F
100
AcDbEntity
  8
0
  6
Continuous
 62
     7
370
    15
100
AcDbLine
 10
98.4258542725
 20
110.9102422335
 30
0.0
 11
98.4258542725
 21
107.9102436044
 31
0.0
  0
LINE
  5
116
330
1F
100
AcDbEntity
  8
0
  6
Continuous
 62
     7
370
    15
100
AcDbLine
 10
98.4258542725
 20
107.9102436044
 30
0.0
 11
104.4258552559
 21
107.9102436044
 31
0.0
  0
LINE
  5
117
330
1F
100
AcDbEntity
  8
0
  6
Continuous
 62
     7
370
    15
100
AcDbLine
 10
104.4258552559
 20
107.9102436044
 30
0.0
 11
104.4258552559
 21
110.9102422335
 31
0.0
  0
LINE
  5
118
330
1F
100
AcDbEntity
  8
0
  6
Continuous
 62
     7
370
    15
100
AcDbLine
 10
104.4258552559
 20
110.9102422335
 30
0.0
 11
98.4258542725
 21
110.9102422335
 31
0.0
  0
LINE
  5
119
330
1F
100
AcDbEntity
  8
0
  6
Continuous
 62
     7
370
    15
100
AcDbLine
 10
172.9758533605
 20
107.9102436044
 30
0.0
 11
178.9758506187
 21
107.9102436044
 31
0.0
  0
LINE
  5
11A
330
1F
100
AcDbEntity
  8
0
  6
Continuous
 62
     7
370
    15
100
AcDbLine
 10
178.9758506187
 20
107.9102436044
 30
0.0
 11
178.9758506187
 21
110.9102422335
 31
0.0
  0
LINE
  5
11B
330
1F
100
AcDbEntity
  8
0
  6
Continuous
 62
     7
370
    15
100
AcDbLine
 10
178.9758506187
 20
110.9102422335
 30
0.0
 11
172.9758533605
 21
110.9102422335
 31
0.0
  0
LINE
  5
11C
330
1F
100
AcDbEntity
  8
0
  6
Continuous
 62
     7
370
    15
100
AcDbLine
 10
172.9758533605
 20
110.9102422335
 30
0.0
 11
172.9758533605
 21
107.9102436044
 31
0.0
  0
LINE
  5
11D
330
1F
100
AcDbEntity
  8
0
  6
Continuous
 62
     7
370
    15
100
AcDbLine
 10
162.9758554467
 20
107.9102436044
 30
0.0
 11
162.9758554467
 21
113.9102445879
 31
0.0
  0
LINE
  5
11E
330
1F
100
AcDbEntity
  8
0
  6
Continuous
 62
     7
370
    15
100
AcDbLine
 10
162.9758554467
 20
113.9102445879
 30
0.0
 11
159.9758568176
 21
113.9102445879
 31
0.0
  0
LINE
  5
11F
330
1F
100
AcDbEntity
  8
0
  6
Continuous
 62
     7
370
    15
100
AcDbLine
 10
159.9758568176
 20
113.9102445879
 30
0.0
 11
159.9758568176
 21
107.9102436044
 31
0.0
  0
LINE
  5
120
330
1F
100
AcDbEntity
  8
0
  6
Continuous
 62
     7
370
    15
100
AcDbLine
 10
159.9758568176
 20
107.9102436044
 30
0.0
 11
162.9758554467
 21
107.9102436044
 31
0.0
  0
LINE
  5
121
330
1F
100
AcDbEntity
  8
0
  6
Continuous
 62
     7
370
    15
100
AcDbLine
 10
162.9758554467
 20
97.9102456906
 30
0.0
 11
156.9758507379
 21
97.9102456906
 31
0.0
  0
LINE
  5
122
330
1F
100
AcDbEntity
  8
0
  6
Continuous
 62
     7
370
    15
100
AcDbLine
 10
156.9758507379
 20
97.9102456906
 30
0.0
 11
156.9758507379
 21
94.9102433362
 31
0.0
  0
LINE
  5
123
330
1F
100
AcDbEntity
  8
0
  6
Continuous
 62
     7
370
    15
100
AcDbLine
 10
156.9758507379
 20
94.9102433362
 30
0.0
 11
162.9758554467
 21
94.9102433362
 31
0.0
  0
LINE
  5
124
330
1F
100
AcDbEntity
  8
0
  6
Continuous
 62
     7
370
    15
100
AcDbLine
 10
162.9758554467
 20
94.9102433362
 30
0.0
 11
162.9758554467
 21
97.9102456906
 31
0.0
  0
LINE
  5
125
330
1F
100
AcDbEntity
  8
0
  6
Continuous
 62
     7
370
    15
100
AcDbLine
 10
172.9758533605
 20
97.9102456906
 30
0.0
 11
172.9758533605
 21
91.9102447071
 31
0.0
  0
LINE
  5
126
330
1F
100
AcDbEntity
  8
0
  6
Continuous
 62
     7
370
    15
100
AcDbLine
 10
172.9758533605
 20
91.9102447071
 30
0.0
 11
175.9758519896
 21
91.9102447071
 31
0.0
  0
LINE
  5
127
330
1F
100
AcDbEntity
  8
0
  6
Continuous
 62
     7
370
    15
100
AcDbLine
 10
175.9758519896
 20
91.9102447071
 30
0.0
 11
175.9758519896
 21
97.9102456906
 31
0.0
  0
LINE
  5
128
330
1F
100
AcDbEntity
  8
0
  6
Continuous
 62
     7
370
    15
100
AcDbLine
 10
175.9758519896
 20
97.9102456906
 30
0.0
 11
172.9758533605
 21
97.9102456906
 31
0.0
  0
LINE
  5
129
330
1F
100
AcDbEntity
  8
0
  6
Continuous
 62
     7
370
    15
100
AcDbLine
 10
182.9758512744
 20
117.9102415183
 30
0.0
 11
182.9758512744
 21
114.9102428892
 31
0.0
  0
LINE
  5
12A
330
1F
100
AcDbEntity
  8
0
  6
Continuous
 62
     7
370
    15
100
AcDbLine
 10
182.9758512744
 20
114.9102428892
 30
0.0
 11
188.9758485325
 21
114.9102428892
 31
0.0
  0
LINE
  5
12B
330
1F
100
AcDbEntity
  8
0
  6
Continuous
 62
     7
370
    15
100
AcDbLine
 10
188.9758485325
 20
114.9102428892
 30
0.0
 11
188.9758485325
 21
117.9102415183
 31
0.0
  0
LINE
  5
12C
330
1F
100
AcDbEntity
  8
0
  6
Continuous
 62
     7
370
    15
100
AcDbLine
 10
188.9758485325
 20
117.9102415183
 30
0.0
 11
193.9758586653
 21
117.9102415183
 31
0.0
  0
LINE
  5
12D
330
1F
100
AcDbEntity
  8
0
  6
Continuous
 62
     7
370
    15
100
AcDbLine
 10
193.9758586653
 20
117.9102415183
 30
0.0
 11
192.0056420334
 21
129.0838921406
 31
0.0
  0
ARC
  5
12E
330
1F
100
AcDbEntity
  8
0
  6
Continuous
 62
     7
370
    15
100
AcDbCircle
 10
191.0208302589
 20
128.9102439024
 30
0.0
 40
0.9999999999999716
100
AcDbArc
 50
10.0
 51
90.0
  0
LINE
  5
12F
330
1F
100
AcDbEntity
  8
0
  6
Continuous
 62
     7
370
    15
100
AcDbLine
 10
191.0208242901
 20
129.9102434852
 30
0.0
 11
189.9758505591
 21
129.9102434852
 31
0.0
  0
LINE
  5
130
330
1F
100
AcDbEntity
  8
0
  6
Continuous
 62
     7
370
    15
100
AcDbLine
 10
189.9758505591
 20
129.9102434852
 30
0.0
 11
179.9758526453
 21
119.9102455714
 31
0.0
  0
LINE
  5
131
330
1F
100
AcDbEntity
  8
0
  6
Continuous
 62
     7
370
    15
100
AcDbLine
 10
179.9758526453
 20
119.9102455714
 30
0.0
 11
179.9758526453
 21
117.9102415183
 31
0.0
  0
LINE
  5
132
330
1F
100
AcDbEntity
  8
0
  6
Continuous
 62
     7
370
    15
100
AcDbLine
 10
179.9758526453
 20
117.9102415183
 30
0.0
 11
182.9758512744
 21
117.9102415183
 31
0.0
  0
LINE
  5
133
330
1F
100
AcDbEntity
  8
0
  6
Continuous
 62
     7
370
    15
100
AcDbLine
 10
152.9758500823
 20
117.9102415183
 30
0.0
 11
155.9758561619
 21
117.9102415183
 31
0.0
  0
LINE
  5
134
330
1F
100
AcDbEntity
  8
0
  6
Continuous
 62
     7
370
    15
100
AcDbLine
 10
155.9758561619
 20
117.9102415183
 30
0.0
 11
155.9758561619
 21
123.910246227
 31
0.0
  0
LINE
  5
135
330
1F
100
AcDbEntity
  8
0
  6
Continuous
 62
     7
370
    15
100
AcDbLine
 10
155.9758561619
 20
123.910246227
 30
0.0
 11
152.9758500823
 21
123.910246227
 31
0.0
  0
LINE
  5
136
330
1F
100
AcDbEntity
  8
0
  6
Continuous
 62
     7
370
    15
100
AcDbLine
 10
152.9758500823
 20
123.910246227
 30
0.0
 11
152.9758500823
 21
128.9102414586
 31
0.0
  0
LINE
  5
137
330
1F
100
AcDbEntity
  8
0
  6
Continuous
 62
     7
370
    15
100
AcDbLine
 10
152.9758500823
 20
128.9102414586
 30
0.0
 11
141.8022069105
 21
126.9400248268
 31
0.0
  0
ARC
  5
138
330
1F
100
AcDbEntity
  8
0
  6
Continuous
 62
     7
370
    15
100
AcDbCircle
 10
141.9758536585
 20
125.9552205028
 30
0.0
 40
0.9999999999999791
100
AcDbArc
 50
100.0
 51
180.0
  0
LINE
  5
139
330
1F
100
AcDbEntity
  8
0
  6
Continuous
 62
     7
370
    15
100
AcDbLine
 10
140.9758555659
 20
125.9552219846
 30
0.0
 11
140.9758555659
 21
124.910240803
 31
0.0
  0
LINE
  5
13A
330
1F
100
AcDbEntity
  8
0
  6
Continuous
 62
     7
370
    15
100
AcDbLine
 10
140.9758555659
 20
124.910240803
 30
0.0
 11
150.9758534797
 21
114.9102428892
 31
0.0
  0
LINE
  5
13B
330
1F
100
AcDbEntity
  8
0
  6
Continuous
 62
     7
370
    15
100
AcDbLine
 10
150.9758534797
 20
114.9102428892
 30
0.0
 11
152.9758500823
 21
114.9102428892
 31
0.0
  0
LINE
  5
13C
330
1F
100
AcDbEntity
  8
0
  6
Continuous
 62
     7
370
    15
100
AcDbLine
 10
152.9758500823
 20
114.9102428892
 30
0.0
 11
152.9758500823
 21
117.9102415183
 31
0.0
  0
LINE
  5
13D
330
1F
100
AcDbEntity
  8
0
  6
Continuous
 62
     7
370
    15
100
AcDbLine
 10
152.9758500823
 20
87.9102440515
 30
0.0
 11
152.9758500823
 21
90.9102426805
 31
0.0
  0
LINE
  5
13E
330
1F
100
AcDbEntity
  8
0
  6
Continuous
 62
     7
370
    15
100
AcDbLine
 10
152.9758500823
 20
90.9102426805
 30
0.0
 11
146.9758528241
 21
90.9102426805
 31
0.0
  0
LINE
  5
13F
330
1F
100
AcDbEntity
  8
0
  6
Continuous
 62
     7
370
    15
100
AcDbLine
 10
146.9758528241
 20
90.9102426805
 30
0.0
 11
146.9758528241
 21
87.9102440515
 31
0.0
  0
LINE
  5
140
330
1F
100
AcDbEntity
  8
0
  6
Continuous
 62
     7
370
    15
100
AcDbLine
 10
146.9758528241
 20
87.9102440515
 30
0.0
 11
141.9758501419
 21
87.9102440515
 31
0.0
  0
LINE
  5
141
330
1F
100
AcDbEntity
  8
0
  6
Continuous
 62
     7
370
    15
100
AcDbLine
 10
141.9758501419
 20
87.9102440515
 30
0.0
 11
143.9460667738
 21
76.7365952917
 31
0.0
  0
ARC
  5
142
330
1F
100
AcDbEntity
  8
0
  6
Continuous
 62
     7
370
    15
100
AcDbCircle
 10
144.9308770582
 20
76.9102439024
 30
0.0
 40
1.0
100
AcDbArc
 50
190.0
 51
270.0
  0
LINE
  5
143
330
1F
100
AcDbEntity
  8
0
  6
Continuous
 62
     7
370
    15
100
AcDbLine
 10
144.9308770665
 20
75.9102439471
 30
0.0
 11
145.9758507975
 21
75.9102439471
 31
0.0
  0
LINE
  5
144
330
1F
100
AcDbEntity
  8
0
  6
Continuous
 62
     7
370
    15
100
AcDbLine
 10
145.9758507975
 20
75.9102439471
 30
0.0
 11
155.9758561619
 21
85.9102437236
 31
0.0
  0
LINE
  5
145
330
1F
100
AcDbEntity
  8
0
  6
Continuous
 62
     7
370
    15
100
AcDbLine
 10
155.9758561619
 20
85.9102437236
 30
0.0
 11
155.9758561619
 21
87.9102440515
 31
0.0
  0
LINE
  5
146
330
1F
100
AcDbEntity
  8
0
  6
Continuous
 62
     7
370
    15
100
AcDbLine
 10
155.9758561619
 20
87.9102440515
 30
0.0
 11
152.9758500823
 21
87.9102440515
 31
0.0
  0
LINE
  5
147
330
1F
100
AcDbEntity
  8
0
  6
Continuous
 62
     7
370
    15
100
AcDbLine
 10
182.9758512744
 20
87.9102440515
 30
0.0
 11
179.9758526453
 21
87.9102440515
 31
0.0
  0
LINE
  5
148
330
1F
100
AcDbEntity
  8
0
  6
Continuous
 62
     7
370
    15
100
AcDbLine
 10
179.9758526453
 20
87.9102440515
 30
0.0
 11
179.9758526453
 21
81.910243068
 31
0.0
  0
LINE
  5
149
330
1F
100
AcDbEntity
  8
0
  6
Continuous
 62
     7
370
    15
100
AcDbLine
 10
179.9758526453
 20
81.910243068
 30
0.0
 11
182.9758512744
 21
81.910243068
 31
0.0
  0
LINE
  5
14A
330
1F
100
AcDbEntity
  8
0
  6
Continuous
 62
     7
370
    15
100
AcDbLine
 10
182.9758512744
 20
81.910243068
 30
0.0
 11
182.9758512744
 21
76.9102441111
 31
0.0
  0
LINE
  5
14B
330
1F
100
AcDbEntity
  8
0
  6
Continuous
 62
     7
370
    15
100
AcDbLine
 10
182.9758512744
 20
76.9102441111
 30
0.0
 11
194.1495018967
 21
78.8804588803
 31
0.0
  0
ARC
  5
14C
330
1F
100
AcDbEntity
  8
0
  6
Continuous
 62
     7
370
    15
100
AcDbCircle
 10
193.9758536585
 20
79.8652673021
 30
0.0
 40
0.999999999999984
100
AcDbArc
 50
280.0
 51
0.0
  0
LINE
  5
14D
330
1F
100
AcDbEntity
  8
0
  6
Continuous
 62
     7
370
    15
100
AcDbLine
 10
194.9758606919
 20
79.8652673104
 30
0.0
 11
194.9758606919
 21
80.9102447667
 31
0.0
  0
LINE
  5
14E
330
1F
100
AcDbEntity
  8
0
  6
Continuous
 62
     7
370
    15
100
AcDbLine
 10
194.9758606919
 20
80.9102447667
 30
0.0
 11
184.9758553275
 21
90.9102426805
 31
0.0
  0
LINE
  5
14F
330
1F
100
AcDbEntity
  8
0
  6
Continuous
 62
     7
370
    15
100
AcDbLine
 10
184.9758553275
 20
90.9102426805
 30
0.0
 11
182.9758512744
 21
90.9102426805
 31
0.0
  0
LINE
  5
150
330
1F
100
AcDbEntity
  8
0
  6
Continuous
 62
     7
370
    15
100
AcDbLine
 10
182.9758512744
 20
90.9102426805
 30
0.0
 11
182.9758512744
 21
87.9102440515
 31
0.0
  0
LINE
  5
151
330
1F
100
AcDbEntity
  8
0
  6
Continuous
 62
     7
370
    15
100
AcDbLine
 10
107.9758520194
 20
117.9102415183
 30
0.0
 11
107.9758520194
 21
114.9102428892
 31
0.0
  0
LINE
  5
152
330
1F
100
AcDbEntity
  8
0
  6
Continuous
 62
     7
370
    15
100
AcDbLine
 10
107.9758520194
 20
114.9102428892
 30
0.0
 11
113.9758530029
 21
114.9102428892
 31
0.0
  0
LINE
  5
153
330
1F
100
AcDbEntity
  8
0
  6
Continuous
 62
     7
370
    15
100
AcDbLine
 10
113.9758530029
 20
114.9102428892
 30
0.0
 11
113.9758530029
 21
117.9102415183
 31
0.0
  0
LINE
  5
154
330
1F
100
AcDbEntity
  8
0
  6
Continuous
 62
     7
370
    15
100
AcDbLine
 10
113.9758530029
 20
117.9102415183
 30
0.0
 11
118.9758556851
 21
117.9102415183
 31
0.0
  0
LINE
  5
155
330
1F
100
AcDbEntity
  8
0
  6
Continuous
 62
     7
370
    15
100
AcDbLine
 10
118.9758556851
 20
117.9102415183
 30
0.0
 11
117.0056390532
 21
129.0838921406
 31
0.0
  0
ARC
  5
156
330
1F
100
AcDbEntity
  8
0
  6
Continuous
 62
     7
370
    15
100
AcDbCircle
 10
116.0208302589
 20
128.9102439024
 30
0.0
 40
0.999999999999984
100
AcDbArc
 50
10.0
 51
90.0
  0
LINE
  5
157
330
1F
100
AcDbEntity
  8
0
  6
Continuous
 62
     7
370
    15
100
AcDbLine
 10
116.0208287605
 20
129.9102434852
 30
0.0
 11
114.9758550294
 21
129.9102434852
 31
0.0
  0
LINE
  5
158
330
1F
100
AcDbEntity
  8
0
  6
Continuous
 62
     7
370
    15
100
AcDbLine
 10
114.9758550294
 20
129.9102434852
 30
0.0
 11
104.9758533903
 21
119.9102455714
 31
0.0
  0
LINE
  5
159
330
1F
100
AcDbEntity
  8
0
  6
Continuous
 62
     7
370
    15
100
AcDbLine
 10
104.9758533903
 20
119.9102455714
 30
0.0
 11
104.9758533903
 21
117.9102415183
 31
0.0
  0
LINE
  5
15A
330
1F
100
AcDbEntity
  8
0
  6
Continuous
 62
     7
370
    15
100
AcDbLine
 10
104.9758533903
 20
117.9102415183
 30
0.0
 11
107.9758520194
 21
117.9102415183
 31
0.0
  0
LINE
  5
15B
330
1F
100
AcDbEntity
  8
0
  6
Continuous
 62
     7
370
    15
100
AcDbLine
 10
72.485473282
 20
108.4006259181
 30
0.0
 11
75.0835484781
 21
109.9006252327
 31
0.0
  0
LINE
  5
15C
330
1F
100
AcDbEntity
  8
0
  6
Continuous
 62
     7
370
    15
100
AcDbLine
 10
75.0835484781
 20
109.9006252327
 30
0.0
 11
72.0835479864
 21
115.096775625
 31
0.0
  0
LINE
  5
15D
330
1F
100
AcDbEntity
  8
0
  6
Continuous
 62
     7
370
    15
100
AcDbLine
 10
72.0835479864
 20
115.096775625
 30
0.0
 11
69.4854727902
 21
113.5967763104
 31
0.0
  0
LINE
  5
15E
330
1F
100
AcDbEntity
  8
0
  6
Continuous
 62
     7
370
    15
100
AcDbLine
 10
69.4854727902
 20
113.5967763104
 30
0.0
 11
66.9854723804
 21
117.9269010165
 31
0.0
  0
LINE
  5
15F
330
1F
100
AcDbEntity
  8
0
  6
Continuous
 62
     7
370
    15
100
AcDbLine
 10
66.9854723804
 20
117.9269010165
 30
0.0
 11
58.2939172585
 21
110.6338219681
 31
0.0
  0
ARC
  5
160
330
1F
100
AcDbEntity
  8
0
  6
Continuous
 62
     7
370
    15
100
AcDbCircle
 10
58.93670486
 20
109.8677790679
 30
0.0
 40
1.000000000000009
100
AcDbArc
 50
130.0
 51
210.0
  0
LINE
  5
161
330
1F
100
AcDbEntity
  8
0
  6
Continuous
 62
     7
370
    15
100
AcDbLine
 10
58.0706794702
 20
109.3677783349
 30
0.0
 11
58.5931677327
 21
108.4628010132
 31
0.0
  0
LINE
  5
162
330
1F
100
AcDbEntity
  8
0
  6
Continuous
 62
     7
370
    15
100
AcDbLine
 10
58.5931677327
 20
108.4628010132
 30
0.0
 11
72.253421224
 21
104.8025505581
 31
0.0
  0
LINE
  5
163
330
1F
100
AcDbEntity
  8
0
  6
Continuous
 62
     7
370
    15
100
AcDbLine
 10
72.253421224
 20
104.8025505581
 30
0.0
 11
73.9854725965
 21
105.8025488594
 31
0.0
  0
LINE
  5
164
330
1F
100
AcDbEntity
  8
0
  6
Continuous
 62
     7
370
    15
100
AcDbLine
 10
73.9854725965
 20
105.8025488594
 30
0.0
 11
72.485473282
 21
108.4006259181
 31
0.0
  0
LINE
  5
165
330
1F
100
AcDbEntity
  8
0
  6
Continuous
 62
     7
370
    15
100
AcDbLine
 10
98.4662364193
 20
82.4198627808
 30
0.0
 11
95.8681593605
 21
83.9198620954
 31
0.0
  0
LINE
  5
166
330
1F
100
AcDbEntity
  8
0
  6
Continuous
 62
     7
370
    15
100
AcDbLine
 10
95.8681593605
 20
83.9198620954
 30
0.0
 11
92.8681570061
 21
78.7237098404
 31
0.0
  0
LINE
  5
167
330
1F
100
AcDbEntity
  8
0
  6
Continuous
 62
     7
370
    15
100
AcDbLine
 10
92.8681570061
 20
78.7237098404
 30
0.0
 11
95.4662340649
 21
77.2237105259
 31
0.0
  0
LINE
  5
168
330
1F
100
AcDbEntity
  8
0
  6
Continuous
 62
     7
370
    15
100
AcDbLine
 10
95.4662340649
 20
77.2237105259
 30
0.0
 11
92.9662364491
 21
72.8935839572
 31
0.0
  0
LINE
  5
169
330
1F
100
AcDbEntity
  8
0
  6
Continuous
 62
     7
370
    15
100
AcDbLine
 10
92.9662364491
 20
72.8935839572
 30
0.0
 11
103.6280061074
 21
69.0130161085
 31
0.0
  0
ARC
  5
16A
330
1F
100
AcDbEntity
  8
0
  6
Continuous
 62
     7
370
    15
100
AcDbCircle
 10
103.9700258568
 20
69.9527087369
 30
0.0
 40
0.9999999999999817
100
AcDbArc
 50
250.0
 51
330.0
  0
LINE
  5
16B
330
1F
100
AcDbEntity
  8
0
  6
Continuous
 62
     7
370
    15
100
AcDbLine
 10
104.836050696
 20
69.4527083971
 30
0.0
 11
105.3585412868
 21
70.3576857188
 31
0.0
  0
LINE
  5
16C
330
1F
100
AcDbEntity
  8
0
  6
Continuous
 62
     7
370
    15
100
AcDbLine
 10
105.3585412868
 20
70.3576857188
 30
0.0
 11
101.6982871064
 21
84.0179396757
 31
0.0
  0
LINE
  5
16D
330
1F
100
AcDbEntity
  8
0
  6
Continuous
 62
     7
370
    15
100
AcDbLine
 10
101.6982871064
 20
84.0179396757
 30
0.0
 11
99.9662357338
 21
85.0179398396
 31
0.0
  0
LINE
  5
16E
330
1F
100
AcDbEntity
  8
0
  6
Continuous
 62
     7
370
    15
100
AcDbLine
 10
99.9662357338
 20
85.0179398396
 30
0.0
 11
98.4662364193
 21
82.4198627808
 31
0.0
  0
ARC
  5
16F
330
1F
100
AcDbEntity
  8
0
  6
Continuous
 62
     7
370
    15
100
AcDbCircle
 10
120.3491868637
 20
66.8781574257
 30
0.0
 40
0.5000000000000205
100
AcDbArc
 50
138.4727315881
 51
232.5
  0
ARC
  5
170
330
1F
100
AcDbEntity
  8
0
  6
Continuous
 62
     7
370
    15
100
AcDbCircle
 10
130.4758536585
 20
57.9102439024
 30
0.0
 40
14.02674585162291
100
AcDbArc
 50
41.5272684119
 51
138.4727315881
  0
ARC
  5
171
330
1F
100
AcDbEntity
  8
0
  6
Continuous
 62
     7
370
    15
100
AcDbCircle
 10
140.6025204534
 20
66.8781574257
 30
0.0
 40
0.5000000000000056
100
AcDbArc
 50
307.5
 51
41.5272684119
  0
LINE
  5
172
330
1F
100
AcDbEntity
  8
0
  6
Continuous
 62
     7
370
    15
100
AcDbLine
 10
140.9069004425
 20
66.4814811163
 30
0.0
 11
131.1592834958
 21
59.0018730574
 31
0.0
  0
LINE
  5
173
330
1F
100
AcDbEntity
  8
0
  6
Continuous
 62
     7
370
    15
100
AcDbLine
 10
131.1592834958
 20
59.0018730574
 30
0.0
 11
131.7071693905
 21
58.2878550478
 31
0.0
  0
LINE
  5
174
330
1F
100
AcDbEntity
  8
0
  6
Continuous
 62
     7
370
    15
100
AcDbLine
 10
131.7071693905
 20
58.2878550478
 30
0.0
 11
142.5865965851
 21
66.6359316521
 31
0.0
  0
ARC
  5
175
330
1F
100
AcDbEntity
  8
0
  6
Continuous
 62
     7
370
    15
100
AcDbCircle
 10
130.4758536585
 20
57.9102439024
 30
0.0
 40
14.92674585162292
100
AcDbArc
 50
35.7724293591
 51
144.2275706409
  0
LINE
  5
176
330
1F
100
AcDbEntity
  8
0
  6
Continuous
 62
     7
370
    15
100
AcDbLine
 10
118.3651092418
 20
66.6359316521
 30
0.0
 11
129.2445364364
 21
58.2878550478
 31
0.0
  0
LINE
  5
177
330
1F
100
AcDbEntity
  8
0
  6
Continuous
 62
     7
370
    15
100
AcDbLine
 10
129.2445364364
 20
58.2878550478
 30
0.0
 11
129.7924223312
 21
59.0018730574
 31
0.0
  0
LINE
  5
178
330
1F
100
AcDbEntity
  8
0
  6
Continuous
 62
     7
370
    15
100
AcDbLine
 10
129.7924223312
 20
59.0018730574
 30
0.0
 11
120.0448053845
 21
66.4814811163
 31
0.0
  0
ARC
  5
179
330
1F
100
AcDbEntity
  8
0
  6
Continuous
 62
     7
370
    15
100
AcDbCircle
 10
170.4758536585
 20
47.9102439024
 30
0.0
 40
14.02674585162291
100
AcDbArc
 50
25.3251227223
 51
154.6748772777
  0
LINE
  5
17A
330
1F
100
AcDbEntity
  8
0
  6
Continuous
 62
     7
370
    15
100
AcDbLine
 10
183.1545609005
 20
53.9102439499
 30
0.0
 11
184.1436105736
 21
53.9102439499
 31
0.0
  0
ARC
  5
17B
330
1F
100
AcDbEntity
  8
0
  6
Continuous
 62
     7
370
    15
100
AcDbCircle
 10
170.4758536585
 20
47.9102439024
 30
0.0
 40
14.92674585162291
100
AcDbArc
 50
23.700954491
 51
156.299045509
  0
LINE
  5
17C
330
1F
100
AcDbEntity
  8
0
  6
Continuous
 62
     7
370
    15
100
AcDbLine
 10
156.8080934652
 20
53.9102439499
 30
0.0
 11
157.7971505888
 21
53.9102439499
 31
0.0
  0
ARC
  5
17D
330
1F
100
AcDbEntity
  8
0
  6
Continuous
 62
     7
370
    15
100
AcDbCircle
 10
90.4758536585
 20
47.9102439024
 30
0.0
 40
14.02674585162289
100
AcDbArc
 50
25.3251227223
 51
154.6748772777
  0
LINE
  5
17E
330
1F
100
AcDbEntity
  8
0
  6
Continuous
 62
     7
370
    15
100
AcDbLine
 10
103.1545589634
 20
53.9102439499
 30
0.0
 11
104.1436160871
 21
53.9102439499
 31
0.0
  0
ARC
  5
17F
330
1F
100
AcDbEntity
  8
0
  6
Continuous
 62
     7
370
    15
100
AcDbCircle
 10
90.4758536585
 20
47.9102439024
 30
0.0
 40
14.92674585162289
100
AcDbArc
 50
23.700954491
 51
156.299045509
  0
LINE
  5
180
330
1F
100
AcDbEntity
  8
0
  6
Continuous
 62
     7
370
    15
100
AcDbLine
 10
76.808091528
 20
53.9102439499
 30
0.0
 11
77.7971467891
 21
53.9102439499
 31
0.0
  0
LINE
  5
181
330
1F
100
AcDbEntity
  8
0
  6
Continuous
 62
     7
370
    15
100
AcDbLine
 10
132.9758542546
 20
140.0402465799
 30
0.0
 11
133.8758545884
 21
140.0402465799
 31
0.0
  0
LINE
  5
182
330
1F
100
AcDbEntity
  8
0
  6
Continuous
 62
     7
370
    15
100
AcDbLine
 10
133.8758545884
 20
140.0402465799
 30
0.0
 11
133.8758545884
 21
151.910243366
 31
0.0
  0
LINE
  5
183
330
1F
100
AcDbEntity
  8
0
  6
Continuous
 62
     7
370
    15
100
AcDbLine
 10
132.9758542546
 20
151.910243366
 30
0.0
 11
133.8758545884
 21
151.910243366
 31
0.0
  0
LINE
  5
184
330
1F
100
AcDbEntity
  8
0
  6
Continuous
 62
     7
370
    15
100
AcDbLine
 10
132.9758542546
 20
151.910243366
 30
0.0
 11
132.9758542546
 21
140.0402465799
 31
0.0
  0
LINE
  5
185
330
1F
100
AcDbEntity
  8
0
  6
Continuous
 62
     7
370
    15
100
AcDbLine
 10
127.0758512386
 20
151.910243366
 30
0.0
 11
127.0758512386
 21
99.8402440884
 31
0.0
  0
LINE
  5
186
330
1F
100
AcDbEntity
  8
0
  6
Continuous
 62
     7
370
    15
100
AcDbLine
 10
127.0758512386
 20
99.8402440884
 30
0.0
 11
127.9758515724
 21
99.8402440884
 31
0.0
  0
LINE
  5
187
330
1F
100
AcDbEntity
  8
0
  6
Continuous
 62
     7
370
    15
100
AcDbLine
 10
127.9758515724
 20
99.8402440884
 30
0.0
 11
127.9758515724
 21
151.910243366
 31
0.0
  0
LINE
  5
188
330
1F
100
AcDbEntity
  8
0
  6
Continuous
 62
     7
370
    15
100
AcDbLine
 10
127.0758512386
 20
151.910243366
 30
0.0
 11
127.9758515724
 21
151.910243366
 31
0.0
  0
LINE
  5
189
330
1F
100
AcDbEntity
  8
0
  6
Continuous
 62
     7
370
    15
100
AcDbLine
 10
71.1002184965
 20
90.7999554613
 30
0.0
 11
71.5502186634
 21
90.0205315986
 31
0.0
  0
LINE
  5
18A
330
1F
100
AcDbEntity
  8
0
  6
Continuous
 62
     7
370
    15
100
AcDbLine
 10
71.5502186634
 20
90.0205315986
 30
0.0
 11
89.3232750662
 21
100.2818101981
 31
0.0
  0
ARC
  5
18B
330
1F
100
AcDbEntity
  8
0
  6
Continuous
 62
     7
370
    15
100
AcDbCircle
 10
92.9758536585
 20
102.9102439024
 30
0.0
 40
4.499999999999992
100
AcDbArc
 50
204.2608295227
 51
215.7391704773
  0
LINE
  5
18C
330
1F
100
AcDbEntity
  8
0
  6
Continuous
 62
     7
370
    15
100
AcDbLine
 10
88.8732748993
 20
101.0612340608
 30
0.0
 11
71.1002184965
 21
90.7999554613
 31
0.0
  0
LINE
  5
18D
330
1F
100
AcDbEntity
  8
0
  6
Continuous
 62
     7
370
    15
100
AcDbLine
 10
114.4014897712
 20
90.0205315986
 30
0.0
 11
114.8514899381
 21
90.7999554613
 31
0.0
  0
LINE
  5
18E
330
1F
100
AcDbEntity
  8
0
  6
Continuous
 62
     7
370
    15
100
AcDbLine
 10
114.8514899381
 20
90.7999554613
 30
0.0
 11
97.0784316727
 21
101.0612340608
 31
0.0
  0
ARC
  5
18F
330
1F
100
AcDbEntity
  8
0
  6
Continuous
 62
     7
370
    15
100
AcDbCircle
 10
92.9758536585
 20
102.9102439024
 30
0.0
 40
4.500000000000017
100
AcDbArc
 50
324.2608295227
 51
335.7391704773
  0
LINE
  5
190
330
1F
100
AcDbEntity
  8
0
  6
Continuous
 62
     7
370
    15
100
AcDbLine
 10
96.6284352311
 20
100.2818101981
 30
0.0
 11
114.4014897712
 21
90.0205315986
 31
0.0
  0
LINE
  5
191
330
1F
100
AcDbEntity
  8
0
  6
Continuous
 62
     7
370
    15
100
AcDbLine
 10
142.9758521684
 20
103.3602448144
 30
0.0
 11
142.9758521684
 21
102.4602444806
 31
0.0
  0
LINE
  5
192
330
1F
100
AcDbEntity
  8
0
  6
Continuous
 62
     7
370
    15
100
AcDbLine
 10
142.9758521684
 20
102.4602444806
 30
0.0
 11
163.4984093674
 21
102.4602444806
 31
0.0
  0
ARC
  5
193
330
1F
100
AcDbEntity
  8
0
  6
Continuous
 62
     7
370
    15
100
AcDbCircle
 10
167.9758536585
 20
102.9102439024
 30
0.0
 40
4.500000000000032
100
AcDbArc
 50
174.2608295227
 51
185.7391704773
  0
LINE
  5
194
330
1F
100
AcDbEntity
  8
0
  6
Continuous
 62
     7
370
    15
100
AcDbLine
 10
163.4984093674
 20
103.3602448144
 30
0.0
 11
142.9758521684
 21
103.3602448144
 31
0.0
  0
LINE
  5
195
330
1F
100
AcDbEntity
  8
0
  6
Continuous
 62
     7
370
    15
100
AcDbLine
 10
167.5258505114
 20
77.910244275
 30
0.0
 11
168.4258508452
 21
77.910244275
 31
0.0
  0
LINE
  5
196
330
1F
100
AcDbEntity
  8
0
  6
Continuous
 62
     7
370
    15
100
AcDbLine
 10
168.4258508452
 20
77.910244275
 30
0.0
 11
168.4258508452
 21
98.4327996113
 31
0.0
  0
ARC
  5
197
330
1F
100
AcDbEntity
  8
0
  6
Continuous
 62
     7
370
    15
100
AcDbCircle
 10
167.9758536585
 20
102.9102439024
 30
0.0
 40
4.500000000000002
100
AcDbArc
 50
264.2608295227
 51
275.7391704773
  0
LINE
  5
198
330
1F
100
AcDbEntity
  8
0
  6
Continuous
 62
     7
370
    15
100
AcDbLine
 10
167.5258505114
 20
98.4327996113
 30
0.0
 11
167.5258505114
 21
77.910244275
 31
0.0
  0
LINE
  5
199
330
1F
100
AcDbEntity
  8
0
  6
Continuous
 62
     7
370
    15
100
AcDbLine
 10
192.9758566388
 20
102.4602444806
 30
0.0
 11
192.9758566388
 21
103.3602448144
 31
0.0
  0
LINE
  5
19A
330
1F
100
AcDbEntity
  8
0
  6
Continuous
 62
     7
370
    15
100
AcDbLine
 10
192.9758566388
 20
103.3602448144
 30
0.0
 11
172.4532994398
 21
103.3602448144
 31
0.0
  0
ARC
  5
19B
330
1F
100
AcDbEntity
  8
0
  6
Continuous
 62
     7
370
    15
100
AcDbCircle
 10
167.9758536585
 20
102.9102439024
 30
0.0
 40
4.500000000000004
100
AcDbArc
 50
354.2608295227
 51
5.7391704773
  0
LINE
  5
19C
330
1F
100
AcDbEntity
  8
0
  6
Continuous
 62
     7
370
    15
100
AcDbLine
 10
172.4532994398
 20
102.4602444806
 30
0.0
 11
192.9758566388
 21
102.4602444806
 31
0.0
  0
SPLINE
  5
19D
330
1F
100
AcDbEntity
  8
0
  6
Continuous
 62
     7
370
    15
100
AcDbSpline
210
0.0
220
0.0
230
1.0
 70
     8
 71
     3
 72
    23
 73
    19
 74
     0
 42
0.00000001
 43
0.00000001
 12
1.0
 22
0.0
 32
0.0
 13
1.0
 23
0.0
 33
0.0
 40
0.0
 40
0.0
 40
0.0
 40
0.0
 40
0.0765589329940468
 40
0.1491613519791132
 40
0.218826846126996
 40
0.2855671390889783
 40
0.3503131057192107
 40
0.4141251538580815
 40
0.4771791613162298
 40
0.5403680185081853
 40
0.6022023899907498
 40
0.6620336537315615
 40
0.7199344070495821
 40
0.7759074326823264
 40
0.8311148643832924
 40
0.886667447011964
 40
0.9425523618334836
 40
1.0
 40
1.0
 40
1.0
 40
1.0
 10
71.47607193899557
 20
147.131733983991
 30
0.0
 10
71.50882230691751
 20
147.132362792409
 30
0.0
 10
71.5726305258412
 20
147.1335879128501
 30
0.0
 10
71.6657164747872
 20
147.1444022071577
 30
0.0
 10
71.75356102340102
 20
147.1615518318259
 30
0.0
 10
71.83599382180999
 20
147.1864953776584
 30
0.0
 10
71.91393766159185
 20
147.2169453542147
 30
0.0
 10
71.98607101563323
 20
147.2561174357262
 30
0.0
 10
72.05424954273938
 20
147.3006697587754
 30
0.0
 10
72.1151136654826
 20
147.3535279153223
 30
0.0
 10
72.17054687422514
 20
147.4100074100382
 30
0.0
 10
72.21888016672435
 20
147.4697974531818
 30
0.0
 10
72.26083771790604
 20
147.5312730854562
 30
0.0
 10
72.29376867366102
 20
147.5958235701443
 30
0.0
 10
72.32009492743256
 20
147.6622104847422
 30
0.0
 10
72.3390184821226
 20
147.7310459960122
 30
0.0
 10
72.35069469737931
 20
147.8025412289657
 30
0.0
 10
72.35187559312628
 20
147.8510403000676
 30
0.0
 10
72.35247418258533
 20
147.87562420835
 30
0.0
  0
SPLINE
  5
19E
330
1F
100
AcDbEntity
  8
0
  6
Continuous
 62
     7
370
    15
100
AcDbSpline
210
0.0
220
0.0
230
1.0
 70
     8
 71
     3
 72
    19
 73
    15
 74
     0
 42
0.00000001
 43
0.00000001
 12
1.0
 22
0.0
 32
0.0
 13
1.0
 23
0.0
 33
0.0
 40
0.0
 40
0.0
 40
0.0
 40
0.0
 40
0.074898207927595
 40
0.1485962943439404
 40
0.2244712347857289
 40
0.3023227423595746
 40
0.3819186179896797
 40
0.4611486955215903
 40
0.5424171227241513
 40
0.6267160830665686
 40
0.7145968311855361
 40
0.804902920355319
 40
0.9001272540718593
 40
1.0
 40
1.0
 40
1.0
 40
1.0
 10
70.60247418258533
 20
147.842671483991
 30
0.0
 10
70.60383744136632
 20
147.8112405778465
 30
0.0
 10
70.60654211493186
 20
147.7488823945176
 30
0.0
 10
70.62799875372127
 20
147.6567193232337
 30
0.0
 10
70.66243428922769
 20
147.5674982684035
 30
0.0
 10
70.7104595051899
 20
147.4819463156605
 30
0.0
 10
70.76992707773027
 20
147.4019962093417
 30
0.0
 10
70.84305354570898
 20
147.3323074337437
 30
0.0
 10
70.92529438345905
 20
147.2703859551803
 30
0.0
 10
71.01943223748682
 20
147.2203054217564
 30
0.0
 10
71.122260703544
 20
147.1803105666744
 30
0.0
 10
71.23375243246122
 20
147.1527546039913
 30
0.0
 10
71.35230735115925
 20
147.1345131540968
 30
0.0
 10
71.43416694341892
 20
147.1326749729526
 30
0.0
 10
71.47607193899557
 20
147.1317339839911
 30
0.0
  0
SPLINE
  5
19F
330
1F
100
AcDbEntity
  8
0
  6
Continuous
 62
     7
370
    15
100
AcDbSpline
210
0.0
220
0.0
230
1.0
 70
     8
 71
     3
 72
    23
 73
    19
 74
     0
 42
0.00000001
 43
0.00000001
 12
1.0
 22
0.0
 32
0.0
 13
1.0
 23
0.0
 33
0.0
 40
0.0
 40
0.0
 40
0.0
 40
0.0
 40
0.0712686925865607
 40
0.1398117850281238
 40
0.2064974320993712
 40
0.2715352442755369
 40
0.3360818306156423
 40
0.4005283877476343
 40
0.4649838426509131
 40
0.5300503053616118
 40
0.5944234089533917
 40
0.6555827099825238
 40
0.7148491056365289
 40
0.772115063870603
 40
0.8289992113006447
 40
0.885122162775239
 40
0.9420793532637942
 40
1.0
 40
1.0
 40
1.0
 40
1.0
 10
71.49640447104686
 20
148.6125032147603
 30
0.0
 10
71.46527868548813
 20
148.611949573393
 30
0.0
 10
71.40421748902966
 20
148.6108634641209
 30
0.0
 10
71.31476056088357
 20
148.5987739636819
 30
0.0
 10
71.22890739539645
 20
148.5819445706287
 30
0.0
 10
71.14694745890596
 20
148.5564137321536
 30
0.0
 10
71.0689153621501
 20
148.5232172418816
 30
0.0
 10
70.99438867956799
 20
148.4832827019333
 30
0.0
 10
70.92393755000225
 20
148.4360772587387
 30
0.0
 10
70.85853482364406
 20
148.3822006432438
 30
0.0
 10
70.79881149414642
 20
148.3241411892826
 30
0.0
 10
70.74641319420104
 20
148.2626790541474
 30
0.0
 10
70.70191567371556
 20
148.1989565213256
 30
0.0
 10
70.6660824228294
 20
148.1321642920464
 30
0.0
 10
70.63667069077064
 20
148.0637166811948
 30
0.0
 10
70.61735681351617
 20
147.9919090859512
 30
0.0
 10
70.60497510194186
 20
147.9181219727579
 30
0.0
 10
70.60331247041775
 20
147.8679618743103
 30
0.0
 10
70.60247418258533
 20
147.842671483991
 30
0.0
  0
SPLINE
  5
1A0
330
1F
100
AcDbEntity
  8
0
  6
Continuous
 62
     7
370
    15
100
AcDbSpline
210
0.0
220
0.0
230
1.0
 70
     8
 71
     3
 72
    23
 73
    19
 74
     0
 42
0.00000001
 43
0.00000001
 12
1.0
 22
0.0
 32
0.0
 13
1.0
 23
0.0
 33
0.0
 40
0.0
 40
0.0
 40
0.0
 40
0.0
 40
0.0573394259201528
 40
0.1130633316232404
 40
0.1691814487493736
 40
0.2257745596549413
 40
0.283826303892081
 40
0.3434542790864956
 40
0.4059069615102776
 40
0.471392259769682
 40
0.5380028337126916
 40
0.6030635561963477
 40
0.6676018307634212
 40
0.7322254428169049
 40
0.7970048098289839
 40
0.863047990034434
 40
0.9303569870570431
 40
1.0
 40
1.0
 40
1.0
 40
1.0
 10
72.35247418258533
 20
147.87562420835
 30
0.0
 10
72.35156833405168
 20
147.8995015489383
 30
0.0
 10
72.34978215898074
 20
147.9465834935844
 30
0.0
 10
72.33844546760646
 20
148.0163500202969
 30
0.0
 10
72.31852959047737
 20
148.0837528344886
 30
0.0
 10
72.29120219361621
 20
148.149602840411
 30
0.0
 10
72.25482123093857
 20
148.2125657911432
 30
0.0
 10
72.21197636093946
 20
148.2742819624562
 30
0.0
 10
72.16028224229647
 20
148.3330384070528
 30
0.0
 10
72.10186964614581
 20
148.3892915030639
 30
0.0
 10
72.03821068543512
 20
148.4413072397772
 30
0.0
 10
71.97054354058088
 20
148.4873216783857
 30
0.0
 10
71.89938907851979
 20
148.5260737946473
 30
0.0
 10
71.82489786763539
 20
148.5575902899996
 30
0.0
 10
71.7472353117001
 20
148.5823777596565
 30
0.0
 10
71.66645853312345
 20
148.5996937548439
 30
0.0
 10
71.58247295837494
 20
148.6105933576861
 30
0.0
 10
71.52541808760249
 20
148.6118594035055
 30
0.0
 10
71.49640447104686
 20
148.6125032147603
 30
0.0
  0
SPLINE
  5
1A1
330
1F
100
AcDbEntity
  8
0
  6
Continuous
 62
     7
370
    15
100
AcDbSpline
210
0.0
220
0.0
230
1.0
 70
     8
 71
     3
 72
    19
 73
    15
 74
     0
 42
0.00000001
 43
0.00000001
 12
1.0
 22
0.0
 32
0.0
 13
1.0
 23
0.0
 33
0.0
 40
0.0
 40
0.0
 40
0.0
 40
0.0
 40
0.0896899362473915
 40
0.1784940104960768
 40
0.2668377532994886
 40
0.3565581760610142
 40
0.4453342496549764
 40
0.5308058350374979
 40
0.6140762174402884
 40
0.6977070858228024
 40
0.7791419498114681
 40
0.8553535905869756
 40
0.9285568200856621
 40
1.0
 40
1.0
 40
1.0
 40
1.0
 10
71.48869213130327
 20
148.9714775737346
 30
0.0
 10
71.51844223509843
 20
148.9723504408841
 30
0.0
 10
71.57764860273844
 20
148.9740875539277
 30
0.0
 10
71.66492793432194
 20
148.9902387276877
 30
0.0
 10
71.74979057873615
 20
149.0156446453436
 30
0.0
 10
71.83132948317689
 20
149.0504046116634
 30
0.0
 10
71.9074340683969
 20
149.0940324715122
 30
0.0
 10
71.97527413662257
 20
149.1462654896016
 30
0.0
 10
72.03427102946564
 20
149.205897586805
 30
0.0
 10
72.08381163968933
 20
149.2720004225744
 30
0.0
 10
72.12222148611906
 20
149.3423520108324
 30
0.0
 10
72.15212329391028
 20
149.4129523036526
 30
0.0
 10
72.16958450927227
 20
149.4845545346406
 30
0.0
 10
72.17186207625961
 20
149.5325214984478
 30
0.0
 10
72.17298700309814
 20
149.5562131506577
 30
0.0
  0
SPLINE
  5
1A2
330
1F
100
AcDbEntity
  8
0
  6
Continuous
 62
     7
370
    15
100
AcDbSpline
210
0.0
220
0.0
230
1.0
 70
     8
 71
     3
 72
    23
 73
    19
 74
     0
 42
0.00000001
 43
0.00000001
 12
1.0
 22
0.0
 32
0.0
 13
1.0
 23
0.0
 33
0.0
 40
0.0
 40
0.0
 40
0.0
 40
0.0
 40
0.0545639495070563
 40
0.1078262027811379
 40
0.1619237085213962
 40
0.217509701053033
 40
0.2744983327961317
 40
0.3348147646240101
 40
0.3975549470643454
 40
0.4647545773561944
 40
0.5329012097695203
 40
0.6000972138233234
 40
0.6653541614565441
 40
0.7310836277242051
 40
0.796883493959006
 40
0.8632915901470202
 40
0.9308312175092465
 40
1.0
 40
1.0
 40
1.0
 40
1.0
 10
70.78196136207251
 20
149.549201932709
 30
0.0
 10
70.78264872898494
 20
149.5309214231841
 30
0.0
 10
70.78400706474977
 20
149.4947965102188
 30
0.0
 10
70.79451219277341
 20
149.4414506442354
 30
0.0
 10
70.8101690475659
 20
149.3890290075014
 30
0.0
 10
70.834819708992
 20
149.338778096445
 30
0.0
 10
70.86438606732273
 20
149.2889547372568
 30
0.0
 10
70.9008775433823
 20
149.2408041512426
 30
0.0
 10
70.94436657128114
 20
149.1941587663796
 30
0.0
 10
70.99339401156023
 20
149.1494153251704
 30
0.0
 10
71.046805549389
 20
149.1075165620807
 30
0.0
 10
71.10338959262091
 20
149.071143380582
 30
0.0
 10
71.16243598399134
 20
149.0407092701007
 30
0.0
 10
71.2233380531974
 20
149.0153798653263
 30
0.0
 10
71.28671650059684
 20
148.9956899279833
 30
0.0
 10
71.35218297404879
 20
148.9817212815448
 30
0.0
 10
71.41974847638276
 20
148.9730392847194
 30
0.0
 10
71.46552905715684
 20
148.9720022634596
 30
0.0
 10
71.48869213130327
 20
148.9714775737346
 30
0.0
  0
SPLINE
  5
1A3
330
1F
100
AcDbEntity
  8
0
  6
Continuous
 62
     7
370
    15
100
AcDbSpline
210
0.0
220
0.0
230
1.0
 70
     8
 71
     3
 72
    23
 73
    19
 74
     0
 42
0.00000001
 43
0.00000001
 12
1.0
 22
0.0
 32
0.0
 13
1.0
 23
0.0
 33
0.0
 40
0.0
 40
0.0
 40
0.0
 40
0.0
 40
0.050902437683654
 40
0.1010340427826135
 40
0.1510838170086576
 40
0.2030619875551369
 40
0.256248434362753
 40
0.3108467145046007
 40
0.3687690999693253
 40
0.430015040386005
 40
0.4925196472738503
 40
0.5560487215256803
 40
0.621995682914956
 40
0.6901923690829581
 40
0.7613848549884995
 40
0.8363562199507256
 40
0.91548700532711
 40
1.0
 40
1.0
 40
1.0
 40
1.0
 10
72.17298700309814
 20
149.5562131506577
 30
0.0
 10
72.17245510551795
 20
149.5728411865762
 30
0.0
 10
72.17139936505995
 20
149.6058454545216
 30
0.0
 10
72.16269930910192
 20
149.6545838198586
 30
0.0
 10
72.14832347609622
 20
149.7022134033813
 30
0.0
 10
72.12886039602537
 20
149.7491276740891
 30
0.0
 10
72.10325060125396
 20
149.7946684061752
 30
0.0
 10
72.0728864137846
 20
149.8395514941847
 30
0.0
 10
72.03600191237913
 20
149.8827672579832
 30
0.0
 10
71.9946054789889
 20
149.9253228064972
 30
0.0
 10
71.94766007035089
 20
149.9647068301688
 30
0.0
 10
71.89525615806129
 20
149.9993415403973
 30
0.0
 10
71.83766240768091
 20
150.0287538969503
 30
0.0
 10
71.77487745770419
 20
150.0526426517281
 30
0.0
 10
71.70713253360405
 20
150.0705850013675
 30
0.0
 10
71.63473965915739
 20
150.0840213491476
 30
0.0
 10
71.55709521219588
 20
150.0915944605965
 30
0.0
 10
71.50366546113102
 20
150.0927009860887
 30
0.0
 10
71.47607193899557
 20
150.0932724455295
 30
0.0
  0
SPLINE
  5
1A4
330
1F
100
AcDbEntity
  8
0
  6
Continuous
 62
     7
370
    15
100
AcDbSpline
210
0.0
220
0.0
230
1.0
 70
     8
 71
     3
 72
    23
 73
    19
 74
     0
 42
0.00000001
 43
0.00000001
 12
1.0
 22
0.0
 32
0.0
 13
1.0
 23
0.0
 33
0.0
 40
0.0
 40
0.0
 40
0.0
 40
0.0
 40
0.0752433085911308
 40
0.1472088117202535
 40
0.2164470898547726
 40
0.2840250416193515
 40
0.3506554491966462
 40
0.4150313178410255
 40
0.4796298309645138
 40
0.5446516341371396
 40
0.6080442396977358
 40
0.667827565028812
 40
0.7251142466493332
 40
0.7809917079106343
 40
0.8355270040618519
 40
0.8894381545415878
 40
0.9440720891799477
 40
1.0
 40
1.0
 40
1.0
 40
1.0
 10
71.47607193899557
 20
150.0932724455295
 30
0.0
 10
71.45152113311417
 20
150.0926210049742
 30
0.0
 10
71.40348902197705
 20
150.0913465024058
 30
0.0
 10
71.3330603508587
 20
150.0846878654077
 30
0.0
 10
71.26608798355032
 20
150.071734648627
 30
0.0
 10
71.20187218289473
 20
150.0544959370678
 30
0.0
 10
71.1412933706742
 20
150.0312079489335
 30
0.0
 10
71.08352881610244
 20
150.0038129396726
 30
0.0
 10
71.02956162629638
 20
149.9705068741784
 30
0.0
 10
70.97874032332575
 20
149.9331456762719
 30
0.0
 10
70.93298954880864
 20
149.8920527701912
 30
0.0
 10
70.892384997156
 20
149.8492390514105
 30
0.0
 10
70.85865688295678
 20
149.8038636593525
 30
0.0
 10
70.83001577347859
 20
149.7570552996293
 30
0.0
 10
70.80923425600211
 20
149.7074247233697
 30
0.0
 10
70.79366995211662
 20
149.6564935469669
 30
0.0
 10
70.78314856062349
 20
149.6036181629002
 30
0.0
 10
70.78236017060084
 20
149.5674816523586
 30
0.0
 10
70.78196136207251
 20
149.549201932709
 30
0.0
  0
SPLINE
  5
1A5
330
1F
100
AcDbEntity
  8
0
  6
Continuous
 62
     7
370
    15
100
AcDbSpline
210
0.0
220
0.0
230
1.0
 70
     8
 71
     3
 72
    19
 73
    15
 74
     0
 42
0.00000001
 43
0.00000001
 12
1.0
 22
0.0
 32
0.0
 13
1.0
 23
0.0
 33
0.0
 40
0.0
 40
0.0
 40
0.0
 40
0.0
 40
0.085605694973528
 40
0.1689832639222362
 40
0.2509075823297907
 40
0.3337080961143255
 40
0.4160049842563385
 40
0.4976595675743817
 40
0.5798932856419661
 40
0.6639023210428555
 40
0.7484662538082617
 40
0.8317908864798617
 40
0.9152519088316946
 40
1.0
 40
1.0
 40
1.0
 40
1.0
 10
71.47747418258533
 20
140.2984006506577
 30
0.0
 10
71.52270055151855
 20
140.2997109309248
 30
0.0
 10
71.6119761474944
 20
140.3022973877752
 30
0.0
 10
71.74243532432833
 20
140.3280162075027
 30
0.0
 10
71.86734929619695
 20
140.3681198682071
 30
0.0
 10
71.9855806837138
 20
140.4240420780836
 30
0.0
 10
72.09514728714767
 20
140.4950544928533
 30
0.0
 10
72.19449640847067
 20
140.5794908699268
 30
0.0
 10
72.28024501960472
 20
140.6789047212792
 30
0.0
 10
72.35357862451288
 20
140.7894622500997
 30
0.0
 10
72.41312536722286
 20
140.9087466021928
 30
0.0
 10
72.45630856901431
 20
141.0345370745002
 30
0.0
 10
72.48230615489612
 20
141.1653191164158
 30
0.0
 10
72.48548698362305
 20
141.254147447153
 30
0.0
 10
72.48708956720071
 20
141.2989014519397
 30
0.0
  0
SPLINE
  5
1A6
330
1F
100
AcDbEntity
  8
0
  6
Continuous
 62
     7
370
    15
100
AcDbSpline
210
0.0
220
0.0
230
1.0
 70
     8
 71
     3
 72
    19
 73
    15
 74
     0
 42
0.00000001
 43
0.00000001
 12
1.0
 22
0.0
 32
0.0
 13
1.0
 23
0.0
 33
0.0
 40
0.0
 40
0.0
 40
0.0
 40
0.0
 40
0.0847327446980078
 40
0.1681786536463074
 40
0.2514881976122769
 40
0.3358406713894913
 40
0.4198344941507947
 40
0.5023448759880078
 40
0.583649019732439
 40
0.66593100527627
 40
0.7487165252643914
 40
0.8310473361373618
 40
0.9144098067945603
 40
1.0
 40
1.0
 40
1.0
 40
1.0
 10
70.46785879796994
 20
141.2989014519397
 30
0.0
 10
70.46946562160545
 20
141.2541494247799
 30
0.0
 10
70.47265486605437
 20
141.1653250192621
 30
0.0
 10
70.4985901024894
 20
141.0345138966255
 30
0.0
 10
70.54197638237179
 20
140.9089320445068
 30
0.0
 10
70.60056366208097
 20
140.7893156584643
 30
0.0
 10
70.67396988076158
 20
140.6786433804257
 30
0.0
 10
70.76045694743787
 20
140.5799718960719
 30
0.0
 10
70.8590966478008
 20
140.4947860846244
 30
0.0
 10
70.96871314799519
 20
140.4241052390652
 30
0.0
 10
71.0870674659069
 20
140.3679454833701
 30
0.0
 10
71.2123237870155
 20
140.3281465076535
 30
0.0
 10
71.3429644810612
 20
140.3022748152562
 30
0.0
 10
71.43224521221049
 20
140.2997033409014
 30
0.0
 10
71.47747418258533
 20
140.2984006506577
 30
0.0
  0
SPLINE
  5
1A7
330
1F
100
AcDbEntity
  8
0
  6
Continuous
 62
     7
370
    15
100
AcDbSpline
210
0.0
220
0.0
230
1.0
 70
     8
 71
     3
 72
    23
 73
    19
 74
     0
 42
0.00000001
 43
0.00000001
 12
1.0
 22
0.0
 32
0.0
 13
1.0
 23
0.0
 33
0.0
 40
0.0
 40
0.0
 40
0.0
 40
0.0
 40
0.0638458997347876
 40
0.1260436278408428
 40
0.1871653577195646
 40
0.2473992895212623
 40
0.3083800306041625
 40
0.3697796166640472
 40
0.4325839246869307
 40
0.497640785995255
 40
0.5624011369620625
 40
0.625557103333036
 40
0.6873320046201693
 40
0.7483127457030699
 40
0.8097910391226111
 40
0.8717675719729232
 40
0.9348361909503086
 40
1.0
 40
1.0
 40
1.0
 40
1.0
 10
71.47747418258533
 20
142.3176314198885
 30
0.0
 10
71.44353657126356
 20
142.3166668282142
 30
0.0
 10
71.37653744259573
 20
142.3147625456445
 30
0.0
 10
71.2779178578877
 20
142.3002786409343
 30
0.0
 10
71.18297770395537
 20
142.2773311368658
 30
0.0
 10
71.0915368598239
 20
142.2447270806059
 30
0.0
 10
71.0039036874075
 20
142.2026281816947
 30
0.0
 10
70.91999428500439
 20
142.1509198214933
 30
0.0
 10
70.8395618450964
 20
142.0902868650143
 30
0.0
 10
70.76417978173535
 20
142.0208241934043
 30
0.0
 10
70.69499746957304
 20
141.9449451988648
 30
0.0
 10
70.634519492977
 20
141.8640968399798
 30
0.0
 10
70.58309438660604
 20
141.7795904937033
 30
0.0
 10
70.5402542276681
 20
141.6913382825633
 30
0.0
 10
70.50834703957254
 20
141.5984458686607
 30
0.0
 10
70.48517401708756
 20
141.5019652374336
 30
0.0
 10
70.47070377662467
 20
141.4016998209516
 30
0.0
 10
70.46881739803688
 20
141.3335388026461
 30
0.0
 10
70.46785879796994
 20
141.2989014519397
 30
0.0
  0
SPLINE
  5
1A8
330
1F
100
AcDbEntity
  8
0
  6
Continuous
 62
     7
370
    15
100
AcDbSpline
210
0.0
220
0.0
230
1.0
 70
     8
 71
     3
 72
    23
 73
    19
 74
     0
 42
0.00000001
 43
0.00000001
 12
1.0
 22
0.0
 32
0.0
 13
1.0
 23
0.0
 33
0.0
 40
0.0
 40
0.0
 40
0.0
 40
0.0
 40
0.0651847959860784
 40
0.128273727113932
 40
0.1902702203927609
 40
0.2517683137756866
 40
0.3127686945781285
 40
0.3747932794097917
 40
0.4379695860627104
 40
0.5030473998633733
 40
0.5681252136640346
 40
0.6309497487122644
 40
0.6923691093867032
 40
0.7529731677502635
 40
0.8136410669177501
 40
0.8743552086918156
 40
0.9365729684654822
 40
0.9999999999999999
 40
0.9999999999999999
 40
0.9999999999999999
 40
0.9999999999999999
 10
72.48708956720071
 20
141.2989014519397
 30
0.0
 10
72.48613129717474
 20
141.3335390096511
 30
0.0
 10
72.4842455680572
 20
141.4017004353109
 30
0.0
 10
72.46977060367715
 20
141.5019628889044
 30
0.0
 10
72.44661506401374
 20
141.5984544855339
 30
0.0
 10
72.4146434467597
 20
141.6913064888167
 30
0.0
 10
72.37198943291118
 20
141.7798189931385
 30
0.0
 10
72.3195726398335
 20
141.8638487201956
 30
0.0
 10
72.2593416144265
 20
141.9452252662479
 30
0.0
 10
72.18932449352843
 20
142.0205789070356
 30
0.0
 10
72.1140211156465
 20
142.0903139436088
 30
0.0
 10
72.03355607746423
 20
142.1509433330083
 30
0.0
 10
71.94977109888109
 20
142.2024009285037
 30
0.0
 10
71.86239251622003
 20
142.2450871690762
 30
0.0
 10
71.7709399485726
 20
142.2770345094021
 30
0.0
 10
71.67613281939177
 20
142.3004111409053
 30
0.0
 10
71.5779340094521
 20
142.3147013375381
 30
0.0
 10
71.51117496629189
 20
142.3166484789994
 30
0.0
 10
71.47747418258533
 20
142.3176314198885
 30
0.0
  0
SPLINE
  5
1A9
330
1F
100
AcDbEntity
  8
0
  6
Continuous
 62
     7
370
    15
100
AcDbSpline
210
0.0
220
0.0
230
1.0
 70
     8
 71
     3
 72
    15
 73
    11
 74
     0
 42
0.00000001
 43
0.00000001
 12
1.0
 22
0.0
 32
0.0
 13
1.0
 23
0.0
 33
0.0
 40
0.0
 40
0.0
 40
0.0
 40
0.0
 40
0.1099838451118761
 40
0.2225804973638862
 40
0.3384998709624411
 40
0.4587085654776243
 40
0.5855353464579973
 40
0.7175177429458814
 40
0.8546668197510172
 40
1.0
 40
1.0
 40
1.0
 40
1.0
 10
83.81791889412378
 20
142.0778477660423
 30
0.0
 10
83.80122561215941
 20
142.0627534504179
 30
0.0
 10
83.76744247793197
 20
142.0322062343641
 30
0.0
 10
83.72230195644268
 20
141.979577027813
 30
0.0
 10
83.67908148375649
 20
141.922825465651
 30
0.0
 10
83.63974783100382
 20
141.8597803410529
 30
0.0
 10
83.6036702445441
 20
141.7911595620463
 30
0.0
 10
83.56991026736313
 20
141.7175419268115
 30
0.0
 10
83.53952385528153
 20
141.6383687965499
 30
0.0
 10
83.52242774524804
 20
141.5831963573216
 30
0.0
 10
83.51363203514941
 20
141.5548109070679
 30
0.0
  0
SPLINE
  5
1AA
330
1F
100
AcDbEntity
  8
0
  6
Continuous
 62
     7
370
    15
100
AcDbSpline
210
0.0
220
0.0
230
1.0
 70
     8
 71
     3
 72
    15
 73
    11
 74
     0
 42
0.00000001
 43
0.00000001
 12
1.0
 22
0.0
 32
0.0
 13
1.0
 23
0.0
 33
0.0
 40
0.0
 40
0.0
 40
0.0
 40
0.0
 40
0.1310919762569275
 40
0.2591412763281408
 40
0.3841617634834021
 40
0.5059919524977751
 40
0.6290980893898496
 40
0.7506691234237037
 40
0.8740389376151189
 40
0.9999999999999999
 40
0.9999999999999999
 40
0.9999999999999999
 40
0.9999999999999999
 10
84.47697338130328
 20
142.3176314198885
 30
0.0
 10
84.44562394278671
 20
142.3170197483434
 30
0.0
 10
84.38365269373459
 20
142.3158106022964
 30
0.0
 10
84.29235162554139
 20
142.3043404729636
 30
0.0
 10
84.20467192662323
 20
142.2853806280918
 30
0.0
 10
84.11996663901189
 20
142.2594156714896
 30
0.0
 10
84.03934577063973
 20
142.2248070689869
 30
0.0
 10
83.96115100242102
 20
142.1842238423773
 30
0.0
 10
83.8873706061762
 20
142.1346822585749
 30
0.0
 10
83.84122931069918
 20
142.0969234037427
 30
0.0
 10
83.81791889412378
 20
142.0778477660423
 30
0.0
  0
LINE
  5
1AB
330
1F
100
AcDbEntity
  8
0
  6
Continuous
 62
     7
370
    15
100
AcDbLine
 10
83.5136326917
 20
141.5548080542
 30
0.0
 11
85.4550379284
 21
141.5548080542
 31
0.0
  0
SPLINE
  5
1AC
330
1F
100
AcDbEntity
  8
0
  6
Continuous
 62
     7
370
    15
100
AcDbSpline
210
0.0
220
0.0
230
1.0
 70
     8
 71
     3
 72
    19
 73
    15
 74
     0
 42
0.00000001
 43
0.00000001
 12
1.0
 22
0.0
 32
0.0
 13
1.0
 23
0.0
 33
0.0
 40
0.0
 40
0.0
 40
0.0
 40
0.0
 40
0.0962401251801538
 40
0.1852312611287006
 40
0.2675005230774373
 40
0.3444003817777763
 40
0.419594868555733
 40
0.4968906265927777
 40
0.5766379188385153
 40
0.6602678524196378
 40
0.745386615087628
 40
0.8300403273864521
 40
0.9144742116388018
 40
1.0
 40
1.0
 40
1.0
 40
1.0
 10
85.45503828514941
 20
141.5548109070679
 30
0.0
 10
85.44354166059588
 20
141.5964737807925
 30
0.0
 10
85.4214143591113
 20
141.6766614013695
 30
0.0
 10
85.37517799466487
 20
141.7877022918135
 30
0.0
 10
85.3231064539687
 20
141.8863901928231
 30
0.0
 10
85.2614847225939
 20
141.9719698258793
 30
0.0
 10
85.19166599696726
 20
142.0479733388614
 30
0.0
 10
85.11102081431933
 20
142.1143919240291
 30
0.0
 10
85.02058492082621
 20
142.1738093750966
 30
0.0
 10
84.92082578014839
 20
142.2239618745634
 30
0.0
 10
84.81518399507249
 20
142.2666517332858
 30
0.0
 10
84.70457780310096
 20
142.2952768490354
 30
0.0
 10
84.59172001523017
 20
142.3148863913351
 30
0.0
 10
84.51538572888245
 20
142.3167124997659
 30
0.0
 10
84.47697338130328
 20
142.3176314198885
 30
0.0
  0
SPLINE
  5
1AD
330
1F
100
AcDbEntity
  8
0
  6
Continuous
 62
     7
370
    15
100
AcDbSpline
210
0.0
220
0.0
230
1.0
 70
     8
 71
     3
 72
    15
 73
    11
 74
     0
 42
0.00000001
 43
0.00000001
 12
1.0
 22
0.0
 32
0.0
 13
1.0
 23
0.0
 33
0.0
 40
0.0
 40
0.0
 40
0.0
 40
0.0
 40
0.1099838451118721
 40
0.2225804973638859
 40
0.3384998709624409
 40
0.4587085654776241
 40
0.5855353464579971
 40
0.7175177429458813
 40
0.8546668197510171
 40
1.0
 40
1.0
 40
1.0
 40
1.0
 10
75.42689325309813
 20
142.0778477660423
 30
0.0
 10
75.41019997113376
 20
142.0627534504179
 30
0.0
 10
75.37641683690633
 20
142.0322062343641
 30
0.0
 10
75.33127631541703
 20
141.979577027813
 30
0.0
 10
75.28805584273086
 20
141.922825465651
 30
0.0
 10
75.24872218997818
 20
141.8597803410529
 30
0.0
 10
75.21264460351844
 20
141.7911595620463
 30
0.0
 10
75.17888462633748
 20
141.7175419268115
 30
0.0
 10
75.14849821425587
 20
141.6383687965498
 30
0.0
 10
75.13140210422239
 20
141.5831963573216
 30
0.0
 10
75.12260639412376
 20
141.5548109070679
 30
0.0
  0
SPLINE
  5
1AE
330
1F
100
AcDbEntity
  8
0
  6
Continuous
 62
     7
370
    15
100
AcDbSpline
210
0.0
220
0.0
230
1.0
 70
     8
 71
     3
 72
    15
 73
    11
 74
     0
 42
0.00000001
 43
0.00000001
 12
1.0
 22
0.0
 32
0.0
 13
1.0
 23
0.0
 33
0.0
 40
0.0
 40
0.0
 40
0.0
 40
0.0
 40
0.1310919762569275
 40
0.2591412763281408
 40
0.3841617634834021
 40
0.5059919524977751
 40
0.6290980893898496
 40
0.7506691234237037
 40
0.8740389376151189
 40
0.9999999999999999
 40
0.9999999999999999
 40
0.9999999999999999
 40
0.9999999999999999
 10
76.08594774027762
 20
142.3176314198885
 30
0.0
 10
76.05459830176106
 20
142.3170197483434
 30
0.0
 10
75.99262705270893
 20
142.3158106022964
 30
0.0
 10
75.90132598451574
 20
142.3043404729636
 30
0.0
 10
75.81364628559757
 20
142.2853806280918
 30
0.0
 10
75.72894099798624
 20
142.2594156714896
 30
0.0
 10
75.64832012961409
 20
142.2248070689869
 30
0.0
 10
75.57012536139537
 20
142.1842238423773
 30
0.0
 10
75.49634496515057
 20
142.1346822585749
 30
0.0
 10
75.45020366967353
 20
142.0969234037427
 30
0.0
 10
75.42689325309813
 20
142.0778477660423
 30
0.0
  0
SPLINE
  5
1AF
330
1F
100
AcDbEntity
  8
0
  6
Continuous
 62
     7
370
    15
100
AcDbSpline
210
0.0
220
0.0
230
1.0
 70
     8
 71
     3
 72
    19
 73
    15
 74
     0
 42
0.00000001
 43
0.00000001
 12
1.0
 22
0.0
 32
0.0
 13
1.0
 23
0.0
 33
0.0
 40
0.0
 40
0.0
 40
0.0
 40
0.0
 40
0.0962401251801545
 40
0.1852312611287012
 40
0.2675005230774379
 40
0.3444003817777768
 40
0.4195948685557334
 40
0.496890626592778
 40
0.5766379188385156
 40
0.660267852419638
 40
0.7453866150876283
 40
0.8300403273864546
 40
0.9144742116388017
 40
0.9999999999999999
 40
0.9999999999999999
 40
0.9999999999999999
 40
0.9999999999999999
 10
77.06401264412376
 20
141.5548109070679
 30
0.0
 10
77.05251601957023
 20
141.5964737807925
 30
0.0
 10
77.03038871808565
 20
141.6766614013696
 30
0.0
 10
76.98415235363923
 20
141.7877022918136
 30
0.0
 10
76.93208081294306
 20
141.8863901928231
 30
0.0
 10
76.87045908156826
 20
141.9719698258792
 30
0.0
 10
76.80064035594161
 20
142.0479733388614
 30
0.0
 10
76.71999517329368
 20
142.1143919240292
 30
0.0
 10
76.62955927980056
 20
142.1738093750966
 30
0.0
 10
76.52980013912274
 20
142.2239618745634
 30
0.0
 10
76.42415835404684
 20
142.2666517332858
 30
0.0
 10
76.31355216207531
 20
142.2952768490354
 30
0.0
 10
76.20069437420452
 20
142.3148863913351
 30
0.0
 10
76.1243600878568
 20
142.316712499766
 30
0.0
 10
76.08594774027762
 20
142.3176314198885
 30
0.0
  0
LINE
  5
1B0
330
1F
100
AcDbEntity
  8
0
  6
Continuous
 62
     7
370
    15
100
AcDbLine
 10
75.1226062842
 20
141.5548080542
 30
0.0
 11
77.0640133836
 21
141.5548080542
 31
0.0
  0
ENDSEC
  0
SECTION
  2
OBJECTS
  0
DICTIONARY
  5
C
330
0
100
AcDbDictionary
281
     1
  3
ACAD_GROUP
350
D
  3
ACAD_LAYOUT
350
1A
  3
ACAD_MLINESTYLE
350
17
  3
ACAD_PLOTSETTINGS
350
19
  3
ACAD_PLOTSTYLENAME
350
E
  0
DICTIONARY
  5
D
102
{ACAD_REACTORS
330
C
102
}
330
C
100
AcDbDictionary
281
     1
  0
DICTIONARY
  5
1A
102
{ACAD_REACTORS
330
C
102
}
330
C
100
AcDbDictionary
281
     1
  3
Layout1
350
1E
  3
Layout2
350
26
  3
Model
350
22
  0
DICTIONARY
  5
17
102
{ACAD_REACTORS
330
C
102
}
330
C
100
AcDbDictionary
281
     1
  3
Standard
350
18
  0
DICTIONARY
  5
19
102
{ACAD_REACTORS
330
C
102
}
330
C
100
AcDbDictionary
281
     1
  0
ACDBDICTIONARYWDFLT
  5
E
102
{ACAD_REACTORS
330
C
102
}
330
C
100
AcDbDictionary
281
     1
  3
Normal
350
F
100
AcDbDictionaryWithDefault
340
F
  0
LAYOUT
  5
1E
102
{ACAD_REACTORS
330
1A
102
}
330
1A
100
AcDbPlotSettings
  1

  2
none_device
  4

  6

 40
0.0
 41
0.0
 42
0.0
 43
0.0
 44
0.0
 45
0.0
 46
0.0
 47
0.0
 48
0.0
 49
0.0
140
0.0
141
0.0
142
1.0
143
1.0
 70
   688
 72
     0
 73
     0
 74
     5
  7

 75
    16
147
1.0
148
0.0
149
0.0
100
AcDbLayout
  1
Layout1
 70
     1
 71
     1
 10
0.0
 20
0.0
 11
420.0
 21
297.0
 12
0.0
 22
0.0
 32
0.0
 14
1.0000000000E+20
 24
1.0000000000E+20
 34
1.0000000000E+20
 15
-1.0000000000E+20
 25
-1.0000000000E+20
 35
-1.0000000000E+20
146
0.0
 13
0.0
 23
0.0
 33
0.0
 16
1.0
 26
0.0
 36
0.0
 17
0.0
 27
1.0
 37
0.0
 76
     0
330
1B
  0
LAYOUT
  5
26
102
{ACAD_REACTORS
330
1A
102
}
330
1A
100
AcDbPlotSettings
  1

  2
none_device
  4

  6

 40
0.0
 41
0.0
 42
0.0
 43
0.0
 44
0.0
 45
0.0
 46
0.0
 47
0.0
 48
0.0
 49
0.0
140
0.0
141
0.0
142
1.0
143
1.0
 70
   688
 72
     0
 73
     0
 74
     5
  7

 75
    16
147
1.0
148
0.0
149
0.0
100
AcDbLayout
  1
Layout2
 70
     1
 71
     2
 10
0.0
 20
0.0
 11
0.0
 21
0.0
 12
0.0
 22
0.0
 32
0.0
 14
0.0
 24
0.0
 34
0.0
 15
0.0
 25
0.0
 35
0.0
146
0.0
 13
0.0
 23
0.0
 33
0.0
 16
1.0
 26
0.0
 36
0.0
 17
0.0
 27
1.0
 37
0.0
 76
     0
330
23
  0
LAYOUT
  5
22
102
{ACAD_REACTORS
330
1A
102
}
330
1A
100
AcDbPlotSettings
  1

  2
none_device
  4

  6

 40
0.0
 41
0.0
 42
0.0
 43
0.0
 44
0.0
 45
0.0
 46
0.0
 47
0.0
 48
0.0
 49
0.0
140
0.0
141
0.0
142
1.0
143
1.0
 70
  1712
 72
     0
 73
     0
 74
     0
  7

 75
     0
147
1.0
148
0.0
149
0.0
100
AcDbLayout
  1
Model
 70
     1
 71
     0
 10
0.0
 20
0.0
 11
297.0
 21
210.0
 12
0.0
 22
0.0
 32
0.0
 14
0.0
 24
0.0
 34
0.0
 15
297.0
 25
210.0
 35
0.0
146
0.0
 13
0.0
 23
0.0
 33
0.0
 16
1.0
 26
0.0
 36
0.0
 17
0.0
 27
1.0
 37
0.0
 76
     0
330
1F
331
29
  0
MLINESTYLE
  5
18
102
{ACAD_REACTORS
330
17
102
}
330
17
100
AcDbMlineStyle
  2
Standard
 70
     0
  3

 62
   256
 51
90.0
 52
90.0
 71
     2
 49
0.5
 62
   256
  6
BYLAYER
 49
-0.5
 62
   256
  6
BYLAYER
  0
ACDBPLACEHOLDER
  5
F
102
{ACAD_REACTORS
330
E
102
}
330
E
  0
ENDSEC
  0
EOF
